» » »

In Pieces Tabs (ver.1)

Artists:  A B C D E F G H I J K L M N O P Q R S T U V W X Y Z # 

In Pieces Tabs (ver.1)

Bane
Rating:
5/5 (1 vote)
Tabs too difficult? Try these video lessons and learn fast.
                -------------------------------------------------------------------------------
-------------------------------------------------------------------------------

If you want something tabbed send me an e-mail. Crucial
   Intro		      Verse	
E|--------------------------|------------------------------------------------|
B|-----------8--------------|------------------------------------------------|
G|--*-*-*-*------*-*-*-*-*--|--*-*-*----7-9-10-10--5-5-5-5-5-5-5-5-----------|
D|--2-2-2-2--5---2-2-2-2-2--|--2-2-2-2-------------5-5-5-5-5-5-5-5-----------|
A|--2-2-2-2------2-2-2-2-2--|--2-2-2-2--5-7-8--8---3-3-3-3-3-3-3-3-----------|
E|--0-0-0-0------0-0-0-0-0--|--0-0-0-0---------------------------------------|

E|---------------------------------------------------------------------------|
B|---------------------------------------------------------------------------|
G|--*-*-*----7-9-10-10--5-5-5-5--3-3-3-3---*-*-*----7-9-10-10----------------|
D|--2-2-2-2-------------5-5-5-5--3-3-3-3---2-2-2-2-------------5-5-5-5-5-5---|
A|--2-2-2-2--5-7-8--8---3-3-3-3--1-1-1-1---2-2-2-2--5-7-8--8-----------------|
E|--0-0-0-0--------------------------------0-0-0-0---------------------------|

					     Chorus	
E|-----------------------------------------|---------------------------------|
B|-----------------------------------------|---------------------------------|
G|--*-*-*----7-9-10-10--5-5-5-5--5-4--5-5--|--7-7-7--9-9--10-10-10-10--9-9---|
D|--2-2-2-2-------------5-5-5-5--5-4--3-3--|--7-7-7--9-9--10-10-10-10--9-9---|
A|--2-2-2-2--5-7-8--8---3-3-3-3--3-2-------|--5-5-5--7-7--8--8--8--8---7-7---|
E|--0-0-0-0--------------------------------|---------------------------------|

E|-----------------|---------------------------------------------------------|
B|-----------------|---------------------------------------------------------|
G|-----------------|--7-7-7--9-9--10-10-10-10--9-9--5-5-5-5-5-5--5-3-3-------|
D|--5-5-5-5-5-5-5--|--7-7-7--9-9--10-10-10-10--9-9--5-5-5-5-5-5--5-3-3-------|
A|-----------------|--5-5-5--7-7--8--8--8--8---7-7--3-3-3-3-3-3--3-1-1-------|
E|-----------------|---------------------------------------------------------|

E|---------------------------------------------------------------------------|
B|---------------------------------------------------------------------------|
G|--7-7-7--9-9--10-10-10-10--9-9--------------7-7-7--9-9--10-10-10-10--9-9---|
D|--7-7-7--9-9--10-10-10-10--9-9--5-5-5-5-5---7-7-7--9-9--10-10-10-10--9-9---|
A|--5-5-5--7-7--8--8--8--8---7-7--------------5-5-5--7-7--8--8--8--8---7-7---|
E|---------------------------------------------------------------------------|

			     Break
E|----------------|--------|---------------------------|---------------(xX)--|
B|----*-*----*-*--|--(x2)--|----*-*----*-*-------(xX)--|---------------------|
G|--5-4-4--5-4-4--|--------|--5-4-4--5-4-4--5-4--------|--*-*--3-3-4-4-------|
D|--3-4-4--3-4-4--|--------|--3-4-4--3-4-4--3-4--------|--2-2----------------|
A|----2-2----2-2--|--------|----2-2----2-2----2--------|--2-2----------------|
E|----------------|--------|---------------------------|--0-0----------------|

E|---------------------------|--/12------------------------------------------|
B|----*-*----*-*-------(x2)--|-----------------------------------------------|
G|--5-4-4--5-4-4--5-4--------|-----------------------------------------------|
D|--3-4-4--3-4-4--3-4--------|-----------------------------------------------|
A|----2-2----2-2----2--------|-----------------------------------------------|
E|---------------------------|-----------------------------------------------|

   Repeat Chorus

===============================================================================
            
Tabs too difficult? Try these video lessons and learn fast.


comments powered by Disqus
↑ Back to top | Tablatures and chords are parodies/interpretations of the original songs. You may use it for private study, scholarship, research or language learning purposes only