» » »

Bane, Fuck What You Heard Tabs (ver.1)

Artists:  A B C D E F G H I J K L M N O P Q R S T U V W X Y Z # 

Fuck What You Heard Tabs (ver.1)

Bane Tabs
 Rating:
4/5 (6 votes)
Fuck What You Heard lessons Tabs too difficult? Try these video lessons and learn fast
1
                -------------------------------------------------------------------------------
-------------------------------------------------------------------------------


   Intro			   Verse
E|-------------------------------|-------------------------------------------|
B|-------------------------------|-------------------------------------------|
G|-----4-5-----11--7--5-7-5-4-2--|--9-9-9-9--5-7-5-4-5---5-5-5-5-------------|
D|--2--4-5--2--11--7--5-7-5-4-2--|--9-9-9-9--5-7-5-4-5---5-5-5-5--2-2-2-2-2--|
A|--2--2-3--2--9---5--3-5-3-2-0--|--7-7-7-7--3-5-3-2-3---3-3-3-3--2-2-2-2-2--|
E|--0-------0--------------------|--------------------------------0-0-0-0-0--|

E|-----------------------------------------------|---------------------------|
B|-----------------------------------------------|--(x2)---------------------|
G|--9-9-9-9-9---------------5-5-5-5--------------|---------------------------|
D|--9-9-9-9-9---------------5-5-5-5--------------|---------------------------|
A|--7-7-7-7-7--5-7-9-10-9---3-3-3-3--5-7-9-10-9--|---------------------------|
E|-----------------------------------------------|---------------------------|

   Chorus
E|---------------------------------------------------------------------------|
B|---------------------------------------------------------------------------|
G|--7-7-7-7--5-5-5--4-4-4----------------------------------------------------|
D|--7-7-7-7--5-5-5--4-4-4--2-2-2-2-2-2-2-------------5-5-5--4-4-4------------|
A|--5-5-5-5--3-3-3--2-2-2--2-2-2-2-2-2-2--3-3-3-3-3----------------5-5-5-5-5-|
E|-------------------------0-0-0-0-0-0-0-------------------------------------|

E|---------------------------------------------------------------------------|
B|---------------------------------------------------------------------------|
G|-----------------------------5-5-5-5-5-------------------------------------|
D|--5-5-5--7-7--2-2-2-2-2-2-2--5-5-5-5-5-------------------------------------|
A|--------------2-2-2-2-2-2-2--3-3-3-3-3-------------------------------------|
E|--------------0-0-0-0-0-0-0------------------------------------------------|

   Repeat Verse

   2nd Verse
E|---------------------------------------------------------------------------|
B|---------------------------------------------------------------------------|
G|--9-9-9-9--5-7-5-4-2---5-5-5-5-------------9-9-9-9-9-----------------------|
D|--9-9-9-9--5-7-5-4-2---5-5-5-5--2-2-2-2-2--9-9-9-9-9-----------------------|
A|--7-7-7-7--3-5-3-2-0---3-3-3-3--2-2-2-2-2--7-7-7-7-7--5-7-9-10-9-----------|
E|--------------------------------0-0-0-0-0----------------------------------|

		       Break	 	
E|-------------------|------------------------------|------------------------|
B|-------------(x )--|------------------------(x )--|------------------------|
G|--7-5-4-5-4--------|--10-9-10---------------------|--10-9-10--12--12-14----|
D|--7-5-4-5-4--------|--10-9-10--2-2-2-2-2-2--------|--10-9-10---------------|
A|--5-3-2-3-2--------|--8--7-8---2-2-2-2-2-2--------|--8--7-8---10--10-12----|
E|-------------------|-----------0-0-0-0-0-0--------|------------------------|

E|---------------------------------------------------------------------------|
B|---------------------------------------------------------------------------|
G|--5-5-5-5--7-7-7-7-----------------------------5-5-5-5--7-7-7-7------------|
D|--5-5-5-5--7-7-7-7--5-5-5--4-4-4--2-2-2--4-5---5-5-5-5--7-7-7-7--5-4-------|
A|--3-3-3-3--5-5-5-5-----------------------------3-3-3-3--5-5-5-5--5-4-------|
E|-----------------------------------------------------------------3-2-------|

E|---------------------------------------------------------------------------|
B|--------------/17-17-17----------------------------------------------------|
G|--------------------------5-5-5-5--7-7-7-7---------------------------------|
D|--2-2-2-2-2-2-------------5-5-5-5--7-7-7-7--5-5-5--4-4-4--2-2-2--4-5-------|
A|--2-2-2-2-2-2-------------3-3-3-3--5-5-5-5---------------------------------|
E|--0-0-0-0-0-0--------------------------------------------------------------|

E|--------------------|        |---------------------------------------------||
B|--------------------|        |---------------------------------------(x )--||
G|--5-5-5-5--7-7-7-7--| Repeat |--7-5-4-5-4----------------------------------||
D|--5-5-5-5--7-7-7-7--| 2nd    |--7-5-4-5-4----------------------------------||
A|--3-3-3-3--5-5-5-5--| Verse  |--5-3-2-3-2----------------------------------||
E|--------------------|        |---------------------------------------------||

===============================================================================
            
Submit corrections

comments powered by Disqus
↑ Back to top | Bane Tabs for Fuck What You Heard. Lyrics for acoustic guitar and electric guitar. 1 Tablatures and chords are parodies/interpretations of the original songs. You may use it for private study, scholarship, research or language learning purposes only