» » »

Bane, Forked Tongue Tabs (ver.1)

Artists:  A B C D E F G H I J K L M N O P Q R S T U V W X Y Z # 

Forked Tongue Tabs (ver.1)

Bane Tabs
 Rating:
4/5 (4 votes)
Forked Tongue lessons Tabs too difficult? Try these video lessons and learn fast
                -------------------------------------------------------------------------------
-------------------------------------------------------------------------------

That's all of Holding This Moment album, remember they play in drop d but never go lower then e

   Intro 

         G|---------------------------------------------------------------------------|
         D|--0-------------------0----------------------------------------------(x )--|
    Bass A|-----3-6-5-6--6/8-6------3-6-5---3-----------------------------------------|
         E|-------------------------------6-------------------------------------------|

         E|--------------|-----------------------------19------------|----------------------|
         B|--------(x2)--|--------------------------------20---------|----------------------| 
         G|--7--7--------|--7--7-7-7-7-7-7-7-7--7--7---------19------|--7--7-7-7-7-7-7-7-7--| 
  Guitar D|--7--7--------|--7--7-7-7-7-7-7-7-7--7--7-----------------|--7--7-7-7-7-7-7-7-7--|
         A|--5--5--------|--5--5-5-5-5-5-5-5-5--5--5-----------(x2)--|--5--5-5-5-5-5-5-5-5--|
         E|--------------|-------------------------------------------|----------------------|

   Pre-Verse/Verse
E|---------------------------------------------------------------------------|
B|----------------------------------------------------------------(x2)/(x2)--|
G|--9-9-9-9-9-9--10-10-10--9-9-9--*-*-*--7-7-7--5-5-5------------------------|
D|--------------------------------7-5-3--------------------------------------|
A|--7-7-7-7-7-7--8--8--8---7-7-7--7-5-3--5-5-5--3-3-3------------------------|
E|--------------------------------5-3-1--------------------------------------|

   Chorus
E|---------------------------------------------------------------------------|
B|---------------------------------------------8-7---------------------------|
G|--9-9-9-9-9-9--10-10-10-10-10-10--5-5-5-5-5-------7-7-7-7-7-7--------------|
D|---------------------------------------------5-4---------------------------|
A|--7-7-7-7-7-7--8--8--8--8--8--8---3-3-3-3-3-------5-5-5-5-5-5--------------|
E|---------------------------------------------------------------------------|

   Repeat Verse/Chorus/Verse
 
         Break
E|-----|---------------------|-----------------------------------------------|
B|-----|---------------(x )--|------------------------------------------(x )-|
G|--9--|---------------------|-------------9-10-9-------------9-8--10-9------|
D|--9--|--2-2-2-2--3-2-------|--2-2-2-2-2--9-10-9--2-2-2-2-2--9-8--10-9------|
A|--7--|--2-2-2-2--3-2-------|--2-2-2-2-2--7-8--7--2-2-2-2-2--7-6--8--7------|
E|-----|--0-0-0-0--1-0-------|--0-0-0-0-0----------0-0-0-0-0-----------------|

E|------------------------------|-------------------------------|---------|-----|
B|------------------------(x2)--|-------------------------(x )--|---------|-----|
G|------------------------------|---------------8-7-------------|---------|-----|
D|--2--3--5--7-7-7-7-7-7--------|--2-2--2-2-2-------9-8---------|---------|--2--|
A|--2--3--5--7-7-7-7-7-7--------|--2-2--2-2-2-------------------|--?-?-?--|--2--|
E|--0--1--3--5-5-5-5-5-5--------|--0-0--0-0-0-------------------|---------|--0--|

   Verse/Outro
E|---------------------------------------------------------------------------------------------||
B|-----------------------------------------------------------------------------------------(x2)||
G|--9-9-9-9-9-9--10-10-10--9-9-9--*-*-*--7-7-7--5-5-5---9-9-9-9-9-9--10-10-10--9-9-9--*-*-*----||
D|--------------------------------7-5-3-----------------------------------------------7-5-3----||
A|--7-7-7-7-7-7--8--8--8---7-7-7--7-5-3--5-5-5--3-3-3---7-7-7-7-7-7--8--8--8---7-7-7--7-5-3----||
E|--------------------------------5-3-1-----------------------------------------------5-3-1----||

==================================================================================
            
Submit corrections

comments powered by Disqus
↑ Back to top | Bane Tabs for Forked Tongue. Lyrics for acoustic guitar and electric guitar. Tablatures and chords are parodies/interpretations of the original songs. You may use it for private study, scholarship, research or language learning purposes only