» » »

Bane, Every Effort Made Tabs (ver.1)

Artists:  A B C D E F G H I J K L M N O P Q R S T U V W X Y Z # 

Every Effort Made Tabs (ver.1)

Bane Tabs
 Rating:
4.2/5 (5 votes)
Every Effort Made lessons Tabs too difficult? Try these video lessons and learn fast
                -------------------------------------------------------------------------------
-------------------------------------------------------------------------------

I have Tabbed the whole first bane album tabbed give me a couple of days to do it all. 
anyone has any Down To Nothing Tabs could they tab them out.

   Verse
E|---------------------------------------------------------------------------|
B|---------------------------------------------------------------------------|
G|--7-7-7-7--9-9-9-9--5-5-5-5--7-7-7-------------4-5---7-7-7-7--9-9-9-9------|
D|--7-7-7-7--9-9-9-9--5-5-5-5--7-7-7--8-8-8-8-8--4-5---7-7-7-7--9-9-9-9------|
A|--5-5-5-5--7-7-7-7--3-3-3-3--5-5-5--8-8-8-8-8--2-3---5-5-5-5--7-7-7-7------|
E|------------------------------------6-6-6-6-6------------------------------|

E|----------------------------------------------|----------------------------|
B|----------------------------------------------|--(x2)----------------------|
G|--5-5-5-5--7-7-7--10-10-10-10--12-12-12--8-8--|----------------------------|
D|--5-5-5-5--7-7-7------------------------------|----------------------------|
A|--3-3-3-3--5-5-5--8--8--8--8---10-10-10--6-6--|----------------------------|
E|----------------------------------------------|----------------------------|

   Chorus
E|---------------------------------------------------------------------------|
B|---------------------------------------------------------------------------|
G|-------------------------7-7-7--5-5-5--------------------------7-7-7--5-5--|
D|--2-2-2-2-2-2-2-2-2-2-2--7-7-7--5-5-5---2-2-2-2-2-2-2-2-2-2-2--------------|
A|--2-2-2-2-2-2-2-2-2-2-2--5-5-5--3-3-3---2-2-2-2-2-2-2-2-2-2-2--5-5-5--3-3--|
E|--0-0-0-0-0-0-0-0-0-0-0-----------------0-0-0-0-0-0-0-0-0-0-0--------------|

E|---------------------------------------------------------------------------|
B|---------------------------------------------------------------------------|
G|-------------------------7-7-7--5-5-5--------------------------5-5-5--7-7--|
D|--2-2-2-2-2-2-2-2-2-2-2--7-7-7--5-5-5---2-2-2-2-2-2-2-2-2-2-2--------------|
A|--2-2-2-2-2-2-2-2-2-2-2--5-5-5--3-3-3---2-2-2-2-2-2-2-2-2-2-2--3-3-3--5-5--|
E|--0-0-0-0-0-0-0-0-0-0-0-----------------0-0-0-0-0-0-0-0-0-0-0--------------|

   Repeat Verse/Chorus

   Break
E|--------------------------------------------------------------------------------|
B|--------------------------------------------------------------------------(x2)--|
G|--9-9-9-9--5-5-5-5--7-7-7-7--6-6--8-8---9-9-9-9--5-5-5-5--7-7-7-7---------------|
D|--9-9-9-9--5-5-5-5--7-7-7-7--6-6--8-8---9-9-9-9--5-5-5-5--7-7-7-7--8-7-8--------|
A|--7-7-7-7--3-3-3-3--5-5-5-5--4-4--6-6---7-7-7-7--3-3-3-3--5-5-5-5--8-7-8--------|
E|-------------------------------------------------------------------6-5-6--------|

   Verse/Outro
E|---------------------------------------------------------------------------||
B|---------------------------------------------------------------------------||
G|--7-7-7-7--9-9-9-9--5-5-5-5--7-7-7-----------------------------------------||
D|--7-7-7-7--9-9-9-9--5-5-5-5--7-7-7--8--------------------------------------||
A|--5-5-5-5--7-7-7-7--3-3-3-3--5-5-5--8--------------------------------------||
E|------------------------------------6--------------------------------------||

===============================================================================
            
Submit corrections

comments powered by Disqus
↑ Back to top | Bane Tabs for Every Effort Made. Lyrics for acoustic guitar and electric guitar. Tablatures and chords are parodies/interpretations of the original songs. You may use it for private study, scholarship, research or language learning purposes only