» » »

Bane, Count Me Out Tabs (ver.1)

Artists:  A B C D E F G H I J K L M N O P Q R S T U V W X Y Z # 

Count Me Out Tabs (ver.1)

Bane Tabs
 Rating:
4.3/5 (6 votes)
Count Me Out lessons Tabs too difficult? Try these video lessons and learn fast
                -------------------------------------------------------------------------------
-------------------------------------------------------------------------------

If you want hardcore music tabbed send a message to me band and song crucial.

   Intro                         Pre-Verse
E|-----------------------------|---------------------------------------------|
B|-----------------------------|---------------------------------------------|
G|--5---------5----------------|--5----------------5-------------------------|
D|--5---------5----------------|--5--5-------------5-------------------------|
A|--3--5-6----3--5-6-8--10-11--|--3--5-------------3--5-6-8--10-11-----------|
E|---------6-------------------|-----3--4-3--3-4-----------------------------|

E|--------------------------------|------------------------------------------|
B|--------------------------------|------------------------------------------|
G|--------------------------------|--5-----------5---------x-x-x-x--5--------|
D|--5--6-5-3-5--6-8-3-5--6-5-3-5--|--5--5--------5---------x-x-x-x--5--------|
A|--------------------------------|--3--5--------3--5-3/5--x-x-x-x--3--------|
E|--------------------------------|-----3--4-3-------------------------------|

   Bridge                      Verse
E|---------------------|-----|-----------------------------------------------|
B|---------------(x3)--|-----|-----------------------------------------------|
G|--5-7-7--10-8--------|--5--|--5-7-7--10-8--10-10-10-10---------8-8--5-5-5--|
D|--5-7-7--10-8--------|--5--|--5-7-7--10-8--10-10-10-10--6-6-6--8-8--5-5-5--|
A|--3/5-5--8--6--------|--3--|--3/5-5--8--6--8--8--8--8---6-6-6--6-6--3-3-3--|
E|---------------------|-----|----------------------------4-4-4--------------|

E|---------------------------------------------------------------------------|
B|---------------------------------------------------------------------------|
G|--5-7-7--10-8--10-10-10-10-------------------------------------------------|
D|--5-7-7--10-8--10-10-10-10-------------------------------------------------|
A|--3/5-5--8--6--8--8--8--8---10-10-10--11-11--13-13-13-13-------------------|
E|---------------------------------------------------------------------------|

E|---------------------------------------------------|------------------(x2)-|
B|---------------------------------------------(x2)--|-----------------------|
G|--5-7--10-8--10-10-10-10---------8-8--5-5-5--------|---------8-8--5-5-5----|
D|--5-7--10-8--10-10-10-10--6-6-6--8-8--5-5-5--------|--6-6-6--8-8--5-5-5----|
A|--3/5--8--6--8--8--8--8---6-6-6--6-6--3-3-3--------|--6-6-6--6-6--3-3-3----|
E|--------------------------4-4-4--------------------|--4-4-4----------------|

                     Chorus
E|-----------------|----------------------------------------------------(x2)-|
B|-----------------|---------------------------------------------------------|
G|-----8--5-5-5-5--|--5-5-5-5-5--7-7-7-----------------------7-7-------8-8---|
D|--6--8--5-5-5-5--|--5-5-5-5-5--7-7-7--8-8-8--5-5-5-5--6-6--7-7--6-6--8-8---|
A|--6--6--3-3-3-3--|--3-3-3-3-3--5-5-5--8-8-8--5-5-5-5--6-6--5-5--6-6--6-6---|
E|--4--------------|--------------------6-6-6--3-3-3-3--4-4-------4-4--------|

E|---------------------------------------------------------------------------|
B|---------------------------------------------------------------------------|
G|---------------------------------------------7-7-------8-8-----------------|
D|--6-6-6--5-5-5-5--5-6-5-5-5--5-5-5-5-5--6-6--7-7--6-6--8-8-----------------|
A|-----------------------------5-5-5-5-5--6-6--5-5--6-6--6-6-----------------|
E|-----------------------------3-3-3-3-3--4-4-------4-4----------------------|

E|---------------------------------------------------------------------------|
B|---------------------------------------------------------------------------|
G|----------------------------------------------7-7-------8-8----------------|
D|--6-6-6--5-5-5-5--5-6--3-3-3--5-5-5-5-5--6-6--7-7--6-6--8-8----------------|
A|------------------------------5-5-5-5-5--6-6--5-5--6-6--6-6----------------|
E|------------------------------3-3-3-3-3--4-4-------4-4---------------------|

E|---------------------------------------------------------------------------|
B|---------------------------------------------------------------------------|
G|-------------------------------------------7-----8-------------------------|
D|--5-5-5-5-5-5-5--5-6--3-3-3--5-5-5-5-5--6--7--6--8-------------------------|
A|-----------------------------5-5-5-5-5--6--5--6--6-------------------------|
E|-----------------------------3-3-3-3-3--4-----4----------------------------|

   Repeat Verse

   Outro
E|---------------------------------------------------------------------------||
B|---------------------------------------------------------------------------||
G|--------------8-8--5-------------------------------------------------------||
D|---------6-6--8-8--5-------------------------------------------------------||
A|--3-5-6--6-6--6-6--3-------------------------------------------------------||
E|---------4-4---------------------------------------------------------------||

===============================================================================
            
Submit corrections

comments powered by Disqus
↑ Back to top | Bane Tabs for Count Me Out. Lyrics for acoustic guitar and electric guitar. Tablatures and chords are parodies/interpretations of the original songs. You may use it for private study, scholarship, research or language learning purposes only