» » »

Bane, Can We Strart Again Tabs (ver.1)

Artists:  A B C D E F G H I J K L M N O P Q R S T U V W X Y Z # 

Can We Strart Again Tabs (ver.1)

Bane Tabs
Rating:
0/5 (0 votes)
Can We Strart Again lessons Tabs too difficult? Try these video lessons and learn fast
                 Intro
E|---------------------------------------------------------------------------|
B|---------------------------------------------------------------------------|
G|-----------------------9-12-11--12--14-16---9-12-11--12--14--16-16---------|
D|--2--5-5---2--5-5----------------------------------------------------------|
A|--2--5-5---2--5-5------7-10-9---10--12-14---7-10-9---10--12--14-14---------|
E|--0--3-3---0--3-3----------------------------------------------------------|

E|------------------------------------------------|
B|------------------------------------------(x2)--|
G|----*-*-*-*-*-*---------------------------------|
D|--2-2-2-2-2-2-2--4--4--7--5-5-5-5---------------|
A|--2-2-2-2-2-2-2--4--4--7--5-5-5-5--5-4-0--------|
E|--0-0-0-0-0-0-0--2--2--5--3-3-3-3---------------|

E|-------------------------------------------|   
B|-------------------------------------------|
G|--9-12-11--12--14-16---9-12-11--12--14-16--|
D|-------------------------------------------|
A|--7-10-9---10--12-14---7-10-9---10--12-14--|
E|-------------------------------------------|

Verse
E|---------------------------------------------------------------------------|
B|---------------------------------------------------------------------------|
G|---------------------------------------------------------------------------|
D|------------------------4-5-4-5-4-5-4---------------------------4-4-4------|
A|--5/7-7-7-7--5/7-7-7-7----------------5---5/7-7-7-7--5/7-7-7-7-------------|
E|---------------------------------------------------------------------------|

E|---------------------------------------------------------------------------|
B|---------------------------------------------------------------------------|
G|---------------------------------------------------------------------------|
D|--5-5-5--7-7-7--5-4-------------------------4-5-4-5-4-5-4------------------|
A|----------------------5/7-7-7-7--5/7-7-7-7----------------5----5/7-7-7-7---|
E|---------------------------------------------------------------------------|

E|---------------------------------------------------------------------------|
B|---------------------------------------------------------------------------|
G|---------------------------------------------------------------------------|
D|-------------4-4-4--5-5-5--4-4-4-------------------------------------------|
A|--5/7-7-7-7-----------------------7-5--------------------------------------|
E|---------------------------------------------------------------------------|

   Chorus
E|---------------------------------------------------------------------------|
B|---------------------------------------------------------------------------|
G|--9-12-11--12--14-16---9-12-11--12--14--16-16------------------------------|
D|-------------------------------------------------2--5-5-5---2-2-2--9-9-----|
A|--7-10-9---10--12-14---7-10-9---10--12--14-14----2----------2-2-2----------|
E|-------------------------------------------------0----------0-0-0----------|

   Break
E|----------------------------------------------------------------(x2)--|
B|----------------------------------------------------------------------|
G|-----*-*-*-*----------------------*-*-*-*-----------------------------|
D|--2--2-2-2-2-2------9----------2--2-2-2-2-2----2--5-5--2-2--9-9-------|
A|--2--2-2-2-2-2--7-9---9--7-10--2--2-2-2-2-2----2-------2-2------------|
E|--0--0-0-0-0-0-----------------0--0-0-0-0-0----0-------0-0------------|

 

  Verse
E|-----------------------------------------|---------------------------------|
B|------------------------------------(x3)-|---------------------------------|
G|-----------------------------------------|---------------------------------|
D|--------------------4-5-4-5-4-5-4--------|------4-4-4--5-5-5--7-7-7--5-4---|
A|--5/7-7-7--5/7-7-7----------------5------|--7------------------------------|
E|-----------------------------------------|---------------------------------|

E|---------------------------------------------------------------------------|
B|----------------------------------12-12-12--13-12-10---12-12-12--13-15-13--|
G|---------------------------------------------------------------------------|
D|-----4-4-4--5-5-5--7-7-7--9-9-9--------------------------------------------|
A|--7------------------------------------------------------------------------|
E|---------------------------------------------------------------------------|

E|---------------------------------------------------------------------------|
B|--12---13-12-10-8---12-12-12--13-12-10---12-12-12--13-15-13----------------|
G|---------------------------------------------------------------------------|
D|---------------------------------------------------------------------------|
A|---------------------------------------------------------------------------|
E|---------------------------------------------------------------------------|

   Chorus
E|---------------------------------------------------------------------(x2)--|
B|---------------------------------------------------------------------------|
G|---------------------------------------------------------------------------|
D|--2-2-2-2-2--5-4--2--5-5-5--4/5-5--5-4-2--2-2-2-2-2-2--5-5-5-4--7-7-7-7-5--|
A|--2-2-2-2-2--5-4--2--5-5-5----------------2-2-2-2-2-2----------------------|
E|--0-0-0-0-0--3-2--0--3-3-3----------------0-0-0-0-0-0----------------------|

   Outro
E|----------------------------------------------------|----------------------|
B|--12-12-12--13-12-10---13-13-13-13--15-13-12--------|----------------------|
G|----------------------------------------------------|------12--------------|
D|----------------------------------------------------|--2-------------------|
A|----------------------------------------------(x2)--|--2---10--------------|
E|----------------------------------------------------|--0-------------------|

E|---------------------------------------------------------------------------||
B|---------------------------------------------------------------------------||
G|-----5-5-5-5---------7-7--9------------------------------------------------||
D|--2--5-5-5-5--2-2-2--7-7--9------------------------------------------------||
A|--2--3-3-3-3--2-2-2--5-5--7------------------------------------------------||
E|--0-----------0-0-0--------------------------------------------------------||
            

comments powered by Disqus
↑ Back to top | Bane Tabs for Can We Strart Again. Lyrics for acoustic guitar and electric guitar. Tablatures and chords are parodies/interpretations of the original songs. You may use it for private study, scholarship, research or language learning purposes only