» » »

Bane, Both Guns Blazing Tabs (ver.1)

Artists:  A B C D E F G H I J K L M N O P Q R S T U V W X Y Z # 

Both Guns Blazing Tabs (ver.1)

Bane Tabs
Rating:
0/5 (0 votes)
Both Guns Blazing lessons Tabs too difficult? Try these video lessons and learn fast
                -------------------------------------------------------------------------------
-------------------------------------------------------------------------------

send some hardcore if you want it tabbed

   Intro
E|--------------------------0------------------------------------------------|
B|----------0-------------0--------------------------------------------(x2)--|
G|--------0---0----------------------4---------0-------0---------------------|
D|------2--------------2---------------5-----2-------4-----------------------|
A|----2--------------2------------5--------3-------5-------------------------|
E|--0--------------0------------3--------------------------------------------|

    E|--------------------------0------------------------------------------------|
    B|----------0-------------0--------------------------------------------------|
    G|--------0---0----------------------4---------0-------0---------------------|
 1. D|------2--------------2---------------5-----2-------4-----------------------|
    A|----2--------------2------------5--------3-------5-------------------------|
    E|--0--------------0------------3--------------------------------------------|

    E|---------------------------------------------------------------------------|
    B|---------------------------------------------------------------------------|
    G|--*-*--*---------*-0----*-0---*-*--*------------------------*-0---*--0-----|
 2. D|--2-2--2-2--5--*-2----*-4-----2-2--2-2-----------------5--*-2----*-4-------|
    A|--2-2--2-2--5--3------5-------2-2--2-2--2-3-2-3-2-3-2--5--3------5---------|
    E|--0-0--0-0--3-----------------0-0--0-0-----------------3-------------------|
   __________________________________  _______________________________________________________
  | 2.                                | 1.
E|-----------------------------------|--------------------------------------------------------|
B|-----------------------------(x2)--|--------------------------------------------------------|
G|--*-*--*---------*-0----*-0--------|--------------------------------------------------------|
D|--2-2--2-2--5--*-2----*-4----------|--2-2-2-------------------------------------------------|
A|--2-2--2-2--5--3------5------------|--2-2-2--7--7-9-10--10-9--5--5-7-7--7-9-10--10-12-10-9--|
E|--0-0--0-0--3----------------------|--0-0-0-------------------------------------------------|

   Pre-Verse
E|---------------------------------------------------------------------------|
B|---------------------------------------------------------------------------|
G|-------*-0----*-0-------------------------*-0----*-0-----------------------|
D|--2--*-2----*-4------2------------------*-2----*-4------2------------------|
A|--2--3------5--------2--2-3-2-3-2-3-2---3------5--------2--2-3-2-3-2-3-2---|
E|--0------------------0----------------------------------0------------------|

                                  Verse
E|------------------------------|--------------------------------------------|
B|------------------------------|--------------------------------------------|
G|----*-0-----*-0---*--*--*--*--|--9-9-9-9--7-7-7---------9-9-9-9------------|
D|--*-2-----*-4-----2--2--2--2--|--9-9-9-9--7-7-7--8-8-8--9-9-9-9----2----4--|
A|--3-------5-------2--2--2--2--|--7-7-7-7--5-5-5--8-8-8--7-7-7-7--3----5----|
E|------------------0--0--0--0--|------------------6-6-6---------------------|

E|----------------------------------------------------|---------------------------|
B|----------------------------------------------------|---------------------------|
G|--9-9-9-9-9--7-7-7--9-9-9---*-*-*-*-*-*-*-*-*-*-*---|--12-12-12-12-12--8-8-8-8--|
D|--9-9-9-9-9--7-7-7--9-9-9---2-2-2-2-2-2-2-2-2-2-2---|--12-12-12-12-12--8-8-8-8--|
A|--7-7-7-7-7--5-5-5--7-7-7---2-2-2-2-2-2-2-2-2-2-2---|--10-10-10-10-10--6-6-6-6--|
E|----------------------------0-0-0-0-0-0-0-0-0-0-0---|---------------------------|

E|------------------------------------------------------------------------------|
B|------------------------------------------------------------------------------|
G|-----------7-7-7----------9-9-9-9-------------9-9-9-9-9--7-7-7--9-9-9---------|
D|--2-2-2-2--7-7-7--8-8-8---9-9-9-9----2----4---9-9-9-9-9--7-7-7--9-9-9---------|
A|--2-2-2-2--5-5-5--8-8-8---7-7-7-7--3----5-----7-7-7-7-7--5-5-5--7-7-7---------|
E|--0-0-0-0---------6-6-6-------------------------------------------------------|

					       Chorus
E|-------------------------------------------|----------------------------------|
B|-------------------------------------------|----------------------------------|
G|--*-*-*-*-*-*-*---12-12-12-12-12--8-8-8-8--|--*-*-*-*-*-*-*-*-*-*-*-*---------|
D|--2-2-2-2-2-2-2---12-12-12-12-12--8-8-8-8--|--2-2-2-2-2-2-2-2-2-2-2-2---------|
A|--2-2-2-2-2-2-2---10-10-10-10-10--6-6-6-6--|--2-2-2-2-2-2-2-2-2-2-2-2--10--6--|
E|--0-0-0-0-0-0-0----------------------------|--0-0-0-0-0-0-0-0-0-0-0-0---------|

E|------------------------------------------------------------------------------|
B|------------------------------------------------------------------------------|
G|--*-*-*-*-*-*-*-*-*-*-*-*----------------*-*-*-*-*-*-*-*-*-*-*-*--------------|
D|--2-2-2-2-2-2-2-2-2-2-2-2----------------2-2-2-2-2-2-2-2-2-2-2-2--------------|
A|--2-2-2-2-2-2-2-2-2-2-2-2--10-9--5-7-3---2-2-2-2-2-2-2-2-2-2-2-2--10--6-------|
E|--0-0-0-0-0-0-0-0-0-0-0-0----------------0-0-0-0-0-0-0-0-0-0-0-0--------------|

				                        Bridge	
E|----------------------------------------------------|------------------------------|
B|------------20--------------------------------------|-----------------------/17----|
G|--*-*-*--19----19--*-*-*--9-9--*-*-*--12-11--7-9-5--|---------0------0-------------|
D|--2-2-2------------2-2-2-------2-2-2----------------|--2----2------4-----2---------|
A|--2-2-2------------2-2-2--7-7--2-2-2--10/9---5-7-3--|--2--3------5-------2---------|
E|--0-0-0------------0-0-0-------0-0-0----------------|--0-----------------0---------|

   Repeat Verse/Chorus

     	 Outro
E|-----|----------0---0-----------|---------------------|--------|-----------|
B|-----|------------0---0---(x3)--|---------------------|--(xX)--|-----------|
G|--9--|--------------------------|------0-------4------|--------|-----------|
D|-----|------2-------------------|----2------4----5----|--------|--2--2-----|
A|--7--|----2---------------------|--3------5-----------|--------|--2--2-----|
E|-----|--0-----------------------|---------------------|--------|--0--0-----|

E|---------------------------------------------------------------------------|
B|-------------------------------------------------------17-17-17------------|
G|--9-9-9-9-9-9-9-9-9-9--12-11-7---9-9-9-9-9-9-9-9-9-9-----------------------|
D|---------------------------------------------------------------------------|
A|--7-7-7-7-7-7-7-7-7-7--10-9--5---7-7-7-7-7-7-7-7-7-7-----------------------|
E|---------------------------------------------------------------------------|

E|--------------------------------------|------------------------------------|
B|--------------------------------(x2)--|------------------------------------|
G|-----------------------12-11-7--------|--9-9-9-9-9-9-9-9-9-9--12-11-7------|
D|--2-2-2-2-2-2-2-2-2-2-----------------|------------------------------------|
A|--2-2-2-2-2-2-2-2-2-2--10-9--5--------|--7-7-7-7-7-7-7-7-7-7--10-9--5------|
E|--0-0-0-0-0-0-0-0-0-0-----------------|------------------------------------|

E|---------------------------------------------------------------------------|
B|--15-17-17-17-15-17-17-17-15-17-17-17-15-17-17-17-17-17-17-17-17-17--------|
G|---------------------------------------------------------------------------|
D|---------------------------------------------------------------------------|
A|---------------------------------------------------------------------------|
E|---------------------------------------------------------------------------|

   ___________________________________  _____________________________________
  | 1.  			       | 2.
E|------------------------------------|--------------------------------|-----||
B|--15-17-17-17-15-17-17-17-17-17-----|---------------------------(xX)-|-----||
G|------------------------------------|--*-*-*-*-*-*-*-*--12-11-9------|-----||
D|------------------------------------|--2-2-2-2-2-2-2-2---------------|--2--||
A|------------------------------(x )--|--2-2-2-2-2-2-2-2--10-9--7------|--2--||
E|------------------------------------|--0-0-0-0-0-0-0-0---------------|--0--||

===============================================================================
            

comments powered by Disqus
↑ Back to top | Bane Tabs for Both Guns Blazing. Lyrics for acoustic guitar and electric guitar. Tablatures and chords are parodies/interpretations of the original songs. You may use it for private study, scholarship, research or language learning purposes only