» » »

Bane, Bang The Drum Slowly Tabs (ver.1)

Artists:  A B C D E F G H I J K L M N O P Q R S T U V W X Y Z # 

Bang The Drum Slowly Tabs (ver.1)

Bane Tabs
 Rating:
4/5 (4 votes)
Bang The Drum Slowly lessons Tabs too difficult? Try these video lessons and learn fast
                -------------------------------------------------------------------------------
-------------------------------------------------------------------------------


   Intro
E|---------------------------------------------------------------------------|
B|---------------------------------------------------------------------------|
G|-----14-12-11---------14-12-11-12-------14-12-11-------------14-12-11-12---|
D|--14----------12---14----------------14----------14-12----14---------------|
A|---------------------------------------------------------------------------|
E|---------------------------------------------------------------------------|

					Verse
E|------------------------------------|--------------------------------------|
B|----------------5-5-5--7-7----(x4)--|--------------------------------------|
G|------------------------------------|--9--5-7-9--9-------9-7-9-7----7-9-7--|
D|--2-------------2-2-2--4-4----------|--9--5-7-9--9--8----9-7-9-7--8-7-9-7--|
A|--2---------------------------------|--7--3-5-7--7--8----7-5-7-5--8-5-7-5--|
E|--0--3/0-3/0-0----------------------|---------------6-------------6--------|

					              Break		
E|-----------------------------------------|--------|------------------------|
B|--------------------------8-7-------8-8--|--(x2)--|------------------------|
G|--9--5-7-9--9--------7-7-------5-5-------|--------|--9-9-9-9--11-11-11-11--|
D|--9--5-7-9--9--8-8--------5-4-------5-5--|--------|------------------------|
A|--7--3-5-7--7--8-8---5-5-------3-3-------|--------|--7-7-7-7--9--9--9--9---|
E|---------------6-6-----------------------|--------|------------------------|

E|---------------------------------------------------------------------------|
B|---------------------------------------------------------------------------|
G|--12-12-12-12----------------9-9-9-9-9--7-7-7-7-7--16-16-16-16-16--12-12---|
D|---------------2-2-2-2-2-2-------------------------------------------------|
A|--10-10-10-10--2-2-2-2-2-2---7-7-7-7-7--5-5-5-5-5--14-14-14-14-14--10-10---|
E|---------------0-0-0-0-0-0-------------------------------------------------|

                Bridge
E|------------|-----------------|---------------------------|--0-------------|
B|------------|-----------------|---------------------(x2)--|--0-------------|
G|--12-11-12--|--9--5-7-8--9----|--9-7-9-7----7--9-7--------|--0-------------|
D|------------|--9--5-7-9--9-8--|--9-7-9-7--8-7--9-7--------|----------------|
A|--10-9--10--|--7--3-5-7--7-8--|--7-5-7-5--8-5--7-5--------|----------------|
E|------------|--------------6--|-----------6---------------|----------------|

   Chorus
E|-----------------------------------------------|---------------------------|
B|-----------------------------------------(x )--|-------8-7--------8--------|
G|--9-9--9-x-x-x-x-x--9-9--7-7-7----7-9-7--------|--7-7--------5-5-----------|
D|--9-9--9-x-x-x-x-x--9-9--7-7-7--8-7-9-7--------|-------5-4--------5--------|
A|--7-7-(7)x-x-x-x-x--7-7--5-5-5--8-5-7-5--------|--5-5--------3-3-----------|
E|--------------------------------6--------------|---------------------------|

   Repeat Break

   Verse
E|------------------------------------------------------|--------------------|
B|-------------------------------8-8-8------------(x2)--|--------------------|
G|--9-9-9-9-9--7-7-7-7-7--7-7-7---------5-5-5-5---------|--9-9-9-9--9-9-9-9--|
D|--9-9-9-9-9--7-7-7-7-7---------5-5-5------------------|--9-9-9-9--9-9-9-9--|
A|--7-7-7-7-7--5-5-5-5-5--5-5-5---------3-3-3-3---------|--7-7-7-7--7-7-7-7--|
E|------------------------------------------------------|--------------------|

    			        Outro
E|----------------------------|----------------------------------------------||
B|--12-12-12-12--12-12-12-12--|----------------------------------------(x )--||
G|----------------------------|----------------------------------------------||
D|--9--9--9--9---9--9--9--9---|--2-2-2-2--5-5-5-5--4-4-4-4--7-7-7-7----------||
A|----------------------------|--2-2-2-2--5-5-5-5--4-4-4-4--7-7-7-7----------||
E|----------------------------|--0-0-0-0--3-3-3-3--2-2-2-2--5-5-5-5----------||

===============================================================================
            
Submit corrections

comments powered by Disqus
↑ Back to top | Bane Tabs for Bang The Drum Slowly. Lyrics for acoustic guitar and electric guitar. Tablatures and chords are parodies/interpretations of the original songs. You may use it for private study, scholarship, research or language learning purposes only