» » »

Bane, At Best Tabs (ver.1)

Artists:  A B C D E F G H I J K L M N O P Q R S T U V W X Y Z # 

At Best Tabs (ver.1)

Bane Tabs
 Rating:
4/5 (4 votes)
At Best lessons Tabs too difficult? Try these video lessons and learn fast
                -------------------------------------------------------------------------------
-------------------------------------------------------------------------------


   Intro                      Verse/Chorus      
E|--------------------------|------------------------------------------------|
B|--------------------------|------------------------------------------------|
G|--------5--------------9--|--8-8-8-8-8-8--5-5-5--7-7-7--------------7------|
D|--5-4-2-5--5-4-2-5--2-----|--8-8-8-8-8-8--5-5-5--7-7-7--6-6-6--5-5--7------|
A|--5-4-2-3--5-4-2-5--2--7--|--6-6-6-6-6-6--3-3-3--5-5-5--6-6-6--5-5--5------|
E|--3-2-0----3-2-0-3--0-----|-----------------------------4-4-4--3-3---------|

E|--------------------------------------------|------------------------------|
B|--------------------------------------------|------------------------------|
G|--8-8-8-8-8-8--10-10-10-10-10-10--12-13-15--|--8-8-8-8-8-8--5-5-5--7-7-7---|
D|--8-8-8-8-8-8-------------------------------|--8-8-8-8-8-8--5-5-5--7-7-7---|
A|--6-6-6-6-6-6--8--8--8--8--8--8---10-11-13--|--6-6-6-6-6-6--3-3-3--5-5-5---|
E|--------------------------------------------|------------------------------|

E|-------------------------------------------------|---------------------3---|
B|-------------------------------------------------|-------------------------|
G|--------------7--8-8-8-8-8-8--10-10-10-10-10-10--|--------5----------------|
D|--6-6-6--5-5--7--8-8-8-8-8-8---------------------|--5-4-2-5--5-4-2-5-------|
A|--6-6-6--5-5--5--6-6-6-6-6-6--8--8--8--8--8--8---|--5-4-2-3--5-4-2-5-------|
E|--4-4-4--3-3-------------------------------------|--3-2-0----3-2-0-3-------|

   Repeta Verse/Chorus 
 
   Bridge                       Break
E|----------------------------|-------------------------------------|---------------------3|
B|-----------------7----(x4)--|-------------------------------------|----------------------|
G|-----------------10---------|-------------------------------------|--------5-------------|
D|--2-2--2-2--2-2-------------|-------------------------------------|--5-4-2-5--5-4-2-5----|
A|--2-2--2-2--2-2-------------|--?-?-?------------------------------|--5-4-2-3--5-4-2-5----|
E|--0-0--0-0--0-0-------------|-------------------------------------|--3-2-0----3-2-0-3----|

   Bridge
E|-----------------------------------------------------------------------------|----------------|
B|-----------------------------------------------------------------------------|----------------|
G|--8-8-8-8-8-8--5-5-5--7-7-7------------------8-8-8-8-8-8--10-10-10-10-10-10--|----------------|
D|--8-8-8-8-8-8--5-5-5--7-7-7--6-6-6--5-5--7---8-8-8-8-8-8---------------------|----------------|
A|--6-6-6-6-6-6--3-3-3--5-5-5--6-6-6--5-5--5---6-6-6-6-6-6--8--8--8--8--8--8---|--?-?-?---------|
E|-----------------------------4-4-4--3-3--------------------------------------|----------------|

   Repeat Verse/Chorus

==================================================================================
            
Submit corrections

comments powered by Disqus
↑ Back to top | Bane Tabs for At Best. Lyrics for acoustic guitar and electric guitar. Tablatures and chords are parodies/interpretations of the original songs. You may use it for private study, scholarship, research or language learning purposes only