» » »

Bane, Ante Up Tabs (ver.1)

Artists:  A B C D E F G H I J K L M N O P Q R S T U V W X Y Z # 

Ante Up Tabs (ver.1)

Bane Tabs
 Rating:
4/5 (6 votes)
Ante Up lessons Tabs too difficult? Try these video lessons and learn fast
                -------------------------------------------------------------------------------
-------------------------------------------------------------------------------

Everyone needs to put more hardcore tabs. Crucial

   Intro
E|---------------------------------------|-----------------------------------|
B|---------------------------------(x2)--|-----------------------------------|
G|--9-9-9-9-9-9-9-9--9-5-7-7--7-7--------|--9-9-9-9-9-9-9-9------------------|
D|-------------------9-5-5-7--7-7--------|-------------------2-2-2-2-2-2-2---|
A|--7-7-7-7-7-7-7-7--7-3---5--5-5--------|--7-7-7-7-7-7-7-7--2-2-2-2-2-2-2---|
E|---------------------------------------|-------------------0-0-0-0-0-0-0---|

E|---------------------------------------------------------------------------|
B|---------------------------------------------------------------------------|
G|--9-9-9-9-9-9-9-9--9-5-7-7--7-7---9-5-7-7--7-7-----------11----------------|
D|-------------------9-5-5-7--7-7---9-5-5-7--7-7--------9------9-------------|
A|--7-7-7-7-7-7-7-7--7-3---5--5-5---7-3---5--5-5---7-7-----------------------|
E|---------------------------------------------------------------------------|

   Verse
E|---------------------------------------------------------------------------|
B|---------------------------------------------------------------------------|
G|--9-9-9--9-9-9----5-5-5-------7-7-7-7---9-9-9--9-9-9--5-5--7-7--4-4--6-6---|
D|--9-9-9--9-9-9--5-5-5-5--5-5--7-7-7-7---9-9-9--9-9-9--5-5--5-5--4-4--4-4---|
A|--7-7-7--7-7-7--5-3-3-3--5-5--5-5-5-5---7-7-7--7-7-7--3-3-------2-2--------|
E|----------------3--------3-3-----------------------------------------------|

E|---------------------------------------------------------------------------|
B|---------------------------------------------------------------------------|
G|--9-9-9--9-9-9----5-5-5-------7-7-7---9-9-9--17-17-16---5-7--4-6--5-7--7-4-|
D|--9-9-9--9-9-9--5-5-5-5--5-5--7-7-7---9-9-9-------------5-5--4-4--5-5--7-4-|
A|--7-7-7--7-7-7--5-3-3-3--5-5--5-5-5---7-7-7-------------3----2----3----5-2-|
E|----------------3--------3-3-----------------------------------------------|

   Chorus                            Break
E|---------------------------------|-----------------------------------------|
B|---------------------------(x )--|-----------------------------------------|
G|--9-9--5-5-5--7-7-7-7--7-7-------|--9-9-9-9-9-9--7-7-7-7-7-7---------5-7---|
D|--9-9--5-5-5--5-5-5-5--7-7-------|--9-9-9-9-9-9--7-7-7-7-7-7--5-5-5--5-7---|
A|--7-7--3-3-3-----------5-5-------|--7-7-7-7-7-7--5-5-5-5-5-5--5-5-5--3-5---|
E|---------------------------------|----------------------------3-3-3--------|

E|---------------------------------------------------------------------------|
B|---------------------------------------------------------------------------|
G|--------------------------------17-17-17-16--------------------------------|
D|--2-2-2-2-2-2---14-14-14-14-14---------------12-12-12-12--14-14-14--17-17--|
A|--2-2-2-2-2-2--------------------------------------------------------------|
E|--0-0-0-0-0-0--------------------------------------------------------------|

E|-------------------------------|----------------------------|--------------|
B|-------------------------------|----------------------(x )--|--------------|
G|--16-16-16-16-16--17-17-17-16--|----------------------------|--------------|
D|-------------------------------|--12/14-14--14/15-15--------|--5-2-2-2-2-2-|
A|-------------------------------|----------------------------|--5-2-2-2-2-2-|
E|-------------------------------|----------------------------|--3-0-0-0-0-0-|

E|---------------------------------------------------------------------------|
B|---------------------------------------------------------------------------|
G|----------------------------------------------7-7-7--7-7-7----------11-----|
D|--3-2-2-2-2-2-2---5-2-2-2-2-2--3-2-2-2-2-2-2--5-5-5--7-7-7-------9------9--|
A|--3-2-2-2-2-2-2---5-2-2-2-2-2--3-2-2-2-2-2-2---------5-5-5--7-7------------|
E|--1-0-0-0-0-0-0---3-0-0-0-0-0--1-0-0-0-0-0-0-------------------------------|

   Verse
E|---------------------------------------------------------------------------|
B|---------------------------------------------------------------------------|
G|--9-9-9--9-9-9-----5-5--7-7--7-7-7-7----------11------17-17--16-16-16------|
D|--9-9-9--9-9-9--5--5-5--5-5--7-7-7-7--------9----9-------------------------|
A|--7-7-7--7-7-7--5--3-3-------5-5-5-5---7-7---------------------------------|
E|----------------3----------------------------------------------------------|

E|---------------------------------------------------------------------------|
B|---------------------------------------------------------------------------|
G|--5-5--7-7--4-4--6-6----------11-----------11-------5-5-5--7-7--7-7-7-7----|
D|--5-5--5-5--4-4--4-4--------9----9-------9----9---5-5-5-5--5-5--7-7-7-7----|
A|--3-3-------2-2--------7-7-----------7-7----------5-3-3-3-------5-5-5-5----|
E|--------------------------------------------------3------------------------|

E|---------------------------------------------------------------------------|
B|---------------------------------------------------------------------------|
G|----------11-----17-17-17--16-16-16--5-7--4-6--5-7--7-4--------------------|
D|--------9----9-----------------------5-5--4-4--5-5--7-4--------------------|
A|---7-7-------------------------------3----2----3----5-2--------------------|
E|---------------------------------------------------------------------------|

   Repeat Chorus

   Outro
E|---------------------------------|------------------------(x )--|-----------------||
B|---------------------------------|------------------------------|-----------------||
G|--9-9-9-9-9-9-9-9-9-9-9-9-9-9-9--|------------------------------|--7-7--7-7--9-9--||
D|--9-9-9-9-9-9-9-9-9-9-9-9-9-9-9--|--5-2-2-2-2-2--3-2-2-2-2-2-2--|--5-5--7-7--9-9--||
A|--7-7-7-7-7-7-7-7-7-7-7-7-7-7-7--|--5-2-2-2-2-2--3-2-2-2-2-2-2--|-------5-5--7-7--||
E|---------------------------------|--3-0-0-0-0-0--1-0-0-0-0-0-0--|-----------------||

======================================================================================
            
Submit corrections

comments powered by Disqus
↑ Back to top | Bane Tabs for Ante Up. Lyrics for acoustic guitar and electric guitar. Tablatures and chords are parodies/interpretations of the original songs. You may use it for private study, scholarship, research or language learning purposes only