» » »

Band Of Skulls, Impossible Bass tabs (ver.1)

Artists:  A B C D E F G H I J K L M N O P Q R S T U V W X Y Z # 

Impossible Bass tabs (ver.1)

Band Of Skulls Tabs
Rating:
0/5 (0 votes)
Impossible lessons Tabs too difficult? Try these video lessons and learn fast
                

Tuning: Standard

   Intro(0:10)
G|--------------------------------------------------------------|
D|--------------------------------------------------------------|
A|--------------------------------------------------------------|
E|--10--7--15--10--10--7--15--10--10--7--15--10--10--7--15--10--|

G|----------------------------|
D|----------------------------|
A|----------------------------|
E|--3(let ring)--3(let ring)--|

G|--------------------------------|
D|--------------------------------|
A|--------------------------------|
E|--10--7--15--10--10--7--15--10--|

   Verse (0:34)
G|-------------------------------------------------------------------------|
D|-------------------------------------------------------------------------|
A|-------------------------------------------------------------------------|
E|--10(x16)--10--7--15--10--10(x16)--10--7--15--10--10(x16)--10--7--15--10-|

G|-------------------------------------|
D|-------------------------------------|
A|-------------------------------------|
E|--10(x16)--3(let ring)--3(let ring)--|

G|-------------------------------------------------------------------------|
D|-------------------------------------------------------------------------|
A|-------------------------------------------------------------------------|
E|--10(x16)--10--7--15--10--10(x16)--10--7--15--10--10(x16)--10--7--15--10-|

G|-----------|
D|-----------|
A|-----------|
E|--10(x16)--|

   Chorus (1:37)
G|----------|
D|----------|
A|----------|
E|--3(x32)--|

   Verse Two (1:47)
G|-------------------------------------------------------------------------|
D|-------------------------------------------------------------------------|
A|-------------------------------------------------------------------------|
E|--10(x48)--10--7--15--10--10(x16)--10--7--15--10--10(x16)--10--7--15--10-|

G|-----------|
D|-----------|
A|-----------|
E|--10(x16)--|

   Chorus (2:22)
G|-----------------------------------------|
D|-----------------------------------------|
A|-----------------------------------------|
E|--3(x32)--10(x32)--3(x32)--10(let ring)--|

   Outro (3:06)
G|--------------------------------------------------------------------------|
D|--------------------------------------------------------------------------|
A|--------------------------------------------------------------------------|
E|--3(x4)--10(x2)--5(x12)--1(x12)--3(x24)--10(x24)--5(x12)--1(x12)--3(x24)--|

G|------------------------------------------------------------|
D|------------------------------------------------------------|
A|------------------------------------------------------------|
E|--10(x24)--5(x12)--1(x12)--3(x24)--10(x24)--5(x12)--1(x12)--|

G|------------------------------------------|
D|------------------------------------------|
A|------------------------------------------|
E|--3(let ring)--3(let ring)--10(let ring)--|

| /  slide up
| \  slide down
| h  hammer-on
| p  pull-off
| ~  vibrato
| +  harmonic
| x  Mute note
            

comments powered by Disqus
↑ Back to top | Band Of Skulls Bass for Impossible. Lyrics for acoustic guitar and electric guitar. Tablatures and chords are parodies/interpretations of the original songs. You may use it for private study, scholarship, research or language learning purposes only