» » »

Fires Bass tabs (ver.1)

Artists:  A B C D E F G H I J K L M N O P Q R S T U V W X Y Z # 

Fires Bass tabs (ver.1)

Band Of Skulls
Rating:
0/5 (0 votes)

Hard to play? Try these video lessons and learn fast.
                

Tuning: Standard

G|------------|
D|------------|
A|------------|x however many
E|--7-5-5-5---|

G|-------------------------------|
D|-------------------------------|
A|-----------------7-------------|
E|---5-5-5-5-5-7-----------------|

G|-------------------------------|
D|-------------------------------|
A|-----------------7---5---------|
E|---5-5-5-5-5-7-----------------|
            
Hard to play? Try these video lessons and learn fast. | Correct




comments powered by Disqus
↑ Back to top | Tablatures and chords are parodies/interpretations of the original songs. You may use it for private study, scholarship, research or language learning purposes only