» » »

Band Of Skulls, Fires Tabs (ver.1)

Artists:  A B C D E F G H I J K L M N O P Q R S T U V W X Y Z # 

Fires Tabs (ver.1)

Band Of Skulls Tabs
Rating:
0/5 (0 votes)
Fires lessons Tabs too difficult? Try these video lessons and learn fast
                Intro

Timing is very rough work it out 

E|--------------------------------------------------------------------------|
B|--------------------------------------------------------------------------|
G|------------------------------------6--------------------6----------------|
D|--xxxxxxxxxxxxxxxxxxxxxxxxxxxxxxxx777-----7-6----------777-----7-6--------|
A|--xxxxxxxxxxxxxxxxxxxxxxxxxxxxxxxx777-------------7----777-------------7--|
E|------------------xxxxxxxxxxxxxxxx555------------------555----------------|

E|------------------------------------------|
B|------------------------------------------|
G|---6--------------------6-----------------|
D|-777-----7-6----------777-----7-6--------7|
A|-777-------------7----777-------------7--7|
E|-555------------------555----------------5|

Verse

part 1
    A                             Bm
   Baby     Darling    Doll-Face     Honey
E|------------------------------------------------------------|
B|------------------------------------------------------------|
G|-------------------6----------------------7--6--------------|
D|---------------------------7--------9------------9----------|
A|---------7----------------------------9---------------7-----|
E|--5---------------------------------------------------------|
                                        

Part 2 

   E                             A
   I  don't mean to cause you worry     
E|------------------------------------------------------------|
B|------------------------------------------------------------|
G|--9-------9--------9----------------------------------------|
D|--9-------9----------------7-------7--9^10--7---------------|
A|--7-------7------------------------------------7--9^10--7---|
E|------------------------------------------------------------|

Part 1 

Theres only hands in my pocket

Part 2

   E                             A
     And no Queen   on my   money   
E|------------------------------------------------------------|
B|------------------------------------------------------------|
G|--9-------9--------9----------------------------------------|
D|--9-------9----------------7-----555555555555555555555555555|
A|--9-------7----------------------555555555555555555555555555|
E|---------------------------------755555555555555555555555555|

Part 1

Did you know ive been wanting you

Part 2

So leave your locks on your latches

Part 1

If you bring the water

Pre-Chorus

   E                       D     
   I'll bring the matches     
E|------------------------------------------------------------------|
B|---------------------------7---7-77-77-7777-----------------------|
G|--9--9----9--9-------------7---7-77-77-7777-----------------------|
D|--9--9----9--9-------------7---7-77-77-7777-------7-77---7--6-----|
A|--7--7----7--7-------------5---5-55-55-5555-------7-77----------7-|
E|--------------------------------------------------5-55------------|


 Chorus
   
    A                                      D   
    Cause   we  Are          Fires in the night   
E|------------------------------------------------------------|
B|------------------------------------------------------------|
G|--------------------------------------------7---------------|
D|--7-------7-7------7-------7--7-----7-------7---7--6--------|
A|--7-------7-7------7-------7--7-----7-------5----------7----|
E|--5-------5-5------5-------5--5-----5-----------------------|
   D                                          A
      We  Are                Fires in the night   
E|------------------------------------------------------------|
B|------------------------------------------------------------|
G|--7-------7-7------7-------7--7-----7-----------------------|
D|--7-------7-7------7-------7--7-----7-------7---7--6--------|
A|--5-------5-5------5-------5--5-----5-------7----------7----|
E|--------------------------------------------5---------------|

Repeat


Second verse same as chorus
            
Submit corrections

comments powered by Disqus
↑ Back to top | Band Of Skulls Tabs for Fires. Lyrics for acoustic guitar and electric guitar. Tablatures and chords are parodies/interpretations of the original songs. You may use it for private study, scholarship, research or language learning purposes only