» » »

Death By Diamonds And Pearls Bass tabs (ver.1)

Artists:  A B C D E F G H I J K L M N O P Q R S T U V W X Y Z # 

Death By Diamonds And Pearls Bass tabs (ver.1)

Band Of Skulls
Rating:
0/5 (0 votes)

Hard to play? Try these video lessons and learn fast.
                

Tuning: Standard


Intro: No bass

   Verse
G|-----------------------------------------------------------------------|
D|-----------------------------------------------------------------------|
A|-----------------------------------77-5-----------------0----0---------|
E|--77-1010-55-55-77-1010-55-55-77-7------7-1010-55-55-77---77---2-1010--|

G|---------------|
D|---------------|
A|---------------|
E|--55-55-55-55--|

   Chorus
G|-------------------------------------------------------|
D|-------------------------------------------------------|
A|-------------------------------------------------------|
E|--7-7-77-5-10-33333-33-2-7--7-7-77-5-10-33333-33-2--7--|

   Verse 2
G|-----------------------------------------------------------------------|
D|-----------------------------------------------------------------------|
A|-----------------------------------77-5-----------------0----0---------|
E|--77-1010-55-55-77-1010-55----77-7------7-1010-55-55-77---77---2-1010--|

G|---------------|
D|---------------|
A|---------------|
E|--55-55-55-55--|

   Chorus
G|------------------------------------------------------|
D|------------------------------------------------------|
A|------------------------------------------------------|
E|--7-7-77-5-10-33333-33-2-7--7-7-77-5-10-33333-33-2-7--|

Pause...

G|-------------------------------------------|
D|-------------------------------------------|
A|-------------------------------------------| x2
E|--777777777777-5-101010-333333333333-2-77--|


Guitar Solo/Chorus
G|------------------------------------------------------|
D|------------------------------------------------------|
A|------------------------------------------------------| x3
E|--7-7-77-5-10-33333-33-2-7--7-7-77-5-10-33333-33-2-7--|





| /  slide up
| \  slide down
| h  hammer-on
| p  pull-off
| ~  vibrato
| +  harmonic
| x  Mute note
            
Hard to play? Try these video lessons and learn fast. | Correct




comments powered by Disqus
↑ Back to top | Tablatures and chords are parodies/interpretations of the original songs. You may use it for private study, scholarship, research or language learning purposes only