» » »

Band Of Skulls, Death By Diamonds And Pearls Tabs (ver.1)

Artists:  A B C D E F G H I J K L M N O P Q R S T U V W X Y Z # 

Death By Diamonds And Pearls Tabs (ver.1)

Band Of Skulls Tabs
 Rating:
4/5 (4 votes)
Death By Diamonds And Pearls lessons Tabs too difficult? Try these video lessons and learn fast
1
                Intro:
Russell uses slap delay on this and so do I. If you don't have it just strum it 
twice. Also lightly palm mute it.

e|-----------------22-------------------|
B|---44--44--44-22-33----------------44-|    
G|---44--44--44-22-22--44--44--44-33-44-|   
D|---44--44--44-22-----55--55--55-44-44-|
A|---------------------55--55--55-44----|
E|--------------------------------------|

  Do this twice, and then end on.      
e|------|
B|--44--|
G|--44--|
D|--44--|
A|------|
E|------|


Verse 1
       1.She grew up in a nice neighbour hood.
       2.Cos she's just the sum of her influence. 
       3.By the cracked windscreen on her car.
Verse 2
          1.You've got your figure all nice.
          2.You got 25 grand on the bubble.
          3.I might be a fan of your insolence.
 e|--------------------------------------22--|
 B|--------------------------------------33--|
 G|--------------------------------------22--|
 D|------------------------------------------|
 A|------------------------------------------|
 E|------------------------------------------|

Verse 1
       1.But it didn't do her no good.
    2.Hell, I can't tell you the difference.
 3.Something is telling me you don't know how lucky you are.
Verse 2
  1.But your heart stays colder than ice. 
  2.And you're the one telling me that you don't think you're in trouble.
  3.But that don't make you the innocent.
 e|----------------------------------|
 B|-----------------------------44---|
 G|-----------11-------11-------44---|
 D|-----------22-------22-------44---|
 A|-----------22-------22------------|
 E|----------------------------------|


 Pre-Chorus
 
   You're just like the rest of those girls.

  e|----------------------------------22--|
  B|----------------------------------33--|
  G|----------------------------------22--|
  D|--------------------------------------|
  A|--------------------------------------|
  E|--------------------------------------|


  They're all death by diamonds and death by diamonds and
  e|------------------------------------------------------|
  B|------------------------------------------------------|
  G|-----------11--------------------11-------------------|
  D|-----------22--------------------22-------------------|
  A|-----------22--------------------22-------------------|
  E|------------------------------------------------------|

  
     
      Death by diamonds and death by diamonds and pearls.
  e|------------------------------------------------------|
  B|------------------------------------------------------|
  G|--11--------------------------------------------------|
  D|--22--------------------------------------------------|
  A|--22--------------------------------------------------|
  E|------------------------------------------------------|



Chorus

                 pm.....
  e|------------2---------------|
  B|---4-4-44-2-3------------4--|
  G|---4-4-44-2-2--44444-4-3-4--|   X2
  D|---4-4-44-2----55555-5-4-4--|
  A|---------------55555-5-4----|
  E|----------------------------|

Repeat Verse, Pre-Chorus and Chorus.

Then repeat the intro twice, and then the chorus but without the palm muting.

Solo. I know this isn't perfect but it sounds alright to me.
e|---------------------------------------------------------|
B|---17b-17b-17b-17bv-17--15v----17br-15-17br-17br-15------|
G|----------------------16---------------------------16----|
D|---------------------------------------------------------|
A|---------------------------------------------------------|
E|---------------------------------------------------------|


b|--------------------------------------------------------------------|
B|--17b-17b-17b-17b-17-15---15v-15p14p12-14p12p10-12p10p8-10p8p7h8p7--|
G|------------------------16------------------------------------------|
D|--------------------------------------------------------------------|
A|--------------------------------------------------------------------|
E|--------------------------------------------------------------------|

e|--------------------------------------------------------------------|
B|--------------------------------------------------------------------|
G|--4s6-6h7-7s9-9s11-11s9-9s7-7s9-9s11-11bv--9-7p6h7-6s4-4s6-6s7-7s9--|
D|--------------------------------------------------------------------|
A|--------------------------------------------------------------------|
E|--------------------------------------------------------------------|

e|------------------------------|
B|---------------------15b-12v--|
G|--9s11-11p9h11p9h11b----------|
D|------------------------------|
A|------------------------------|
E|------------------------------|

After that just repeat the chorus and then you're done :)
This is also my first tab, any feedback would be appreciated.
Cheers 
Tom
            
Submit corrections

comments powered by Disqus
↑ Back to top | Band Of Skulls Tabs for Death By Diamonds And Pearls. Lyrics for acoustic guitar and electric guitar. 1 Tablatures and chords are parodies/interpretations of the original songs. You may use it for private study, scholarship, research or language learning purposes only