» » »

Band Of Horses, Funeral Bass tabs (ver.4)

Artists:  A B C D E F G H I J K L M N O P Q R S T U V W X Y Z # 

Funeral Bass tabs (ver.4)

Band Of Horses Tabs
 Rating:
4/5 (4 votes)
Funeral lessons Tabs too difficult? Try these video lessons and learn fast
                -------------------------------------------------------------------------------
			     The Funeral - Band of Horses
-------------------------------------------------------------------------------

Tuning: Standard

NOTE! I've tried a new method of tabbing with this.
I've cut the song into separate chunks (such as Verse A, Verse B)
Use the song structure list. It lists the chunks as they appear on the recording.


Song Structure		Played		Time

Silence			1           	(0:00)
Verse part A		3			(1:21)
Verse part B		1			(1:50)
Chorus part A		3			(1:59)
Chorus part B		1			(2:34)
Silence			1			(2:48)
Verse part A		3			(3:07)
Verse part B		1			(3:35)
Chorus part A		3			(3:45)
Chorus part B		1			(4:20)
Breakdown		1	`		(4:31)
Post-breakdown jam	3			(4:39)
End			1			(5:01)			


--------------------------------------------------------------------------------


"Really too late to call..."  (Verse part A)

G|--------------------------------------------------|
D|--------------------------------------------------|
A|-----------------6-6-6-6-6-6-6-6-5-5-5-5-5-5-5-5--|
E|-4-4-4-4-4-4-4-4----------------------------------|


G|---------------------------------|
D|---------------------------------|
A|3-3-3-3-3-3-3-3-3-3-3-3-3-3-3-3--|
E|---------------------------------|


-------------------------------------------------------------------------------


"Is to know me all wrong..."  (Verse part B)

G|--------------------------------------------------|
D|--------------------------------------------------|
A|-----------------6-6-6-6-6-6-6-6-5-5-5-5-5-5-5-5--|
E|-4-4-4-4-4-4-4-4----------------------------------|


G|-----|
D|-----|
A|-3---|
E|-----|


------------------------------------------------------------------------------


"On every occasion I'll be ready..." (Chorus part A)

G|----------------------------------------------|
D|---------------------------------1---1----1---|
A|-1-1-1-1-1-1-1-1-1-1-1-1-1-1-1-1--------------|
E|----------------------------------------------|


G|-------------------------------------------------|
D|-------------------------------------------------|
A|-4-4-4-4-4-4-4-4-4-4-4-4-4-4-4-4-4-4-4-4-4-4-4-4-|
E|-------------------------------------------------|


------------------------------------------------------------------------------


"On every occasion, oh, one brilliant day funeral..." (Chorus part B)

G|----------------------------------------------|
D|---------------------------------1---1----1---|
A|-1-1-1-1-1-1-1-1-1-1-1-1-1-1-1-1--------------|
E|----------------------------------------------|


G|----------------------------------------------|
D|----------------------------------------------|
A|-4-4-4-4-4-4-4-4-4-4-4-4-4-4-4-4-4-4-4--------|
E|----------------------------------------------|

------------------------------------------------------------------------------


"1, 2, 3, 4..." (Breakdown)

G|------------------------------------------------------------------------|
D|------------------1111111111111111------------------1111111111111111----|
A|-----------------------------------1111111111111111---------------------|
E|-4444444444444444-------------------------------------------------------|

------------------------------------------------------------------------------


(Post-breakdown jam)

G|---------------------------------------------------------------------------|
D|--------------------1-1-1-111-1-1-1-----------------1-1-1-111-1-1-1--------|
A|------------------------------------1-1-1-111-1-1-1------------------------|
E|-4-4-4-444-4-4-4-4---------------------------------------------------------|

------------------------------------------------------------------------------


End

G|--------------------------------------------------------|
D|--------------------1-1-1-111-1-1-1-----------------1---|
A|------------------------------------1-1-1-111-1-1-1-----|
E|-4-4-4-444-4-4-4-4--------------------------------------|

===============================================================================
            
Submit corrections

comments powered by Disqus
↑ Back to top | Band Of Horses Bass for Funeral. Lyrics for acoustic guitar and electric guitar. Tablatures and chords are parodies/interpretations of the original songs. You may use it for private study, scholarship, research or language learning purposes only