» » »

Band Of Horses, St Augustine Tabs (ver.2)

Artists:  A B C D E F G H I J K L M N O P Q R S T U V W X Y Z # 

St Augustine Tabs (ver.2)

Band Of Horses Tabs
 Rating:
4/5 (4 votes)
St Augustine lessons Tabs too difficult? Try these video lessons and learn fast
1
                "(1)
St. Augustine - Band of Horses
November 28, 2007


CAPO 4
Fingering Relative
Standard Tuning (EADGBe)

Riff 1						  
------						  
    G          Em         G          Em           
e|----------------------------------------------|| 
B|----------------0-0*-3----------------0-0*-3--||
G|-----0-0*-2----0-----------0-0*-2----0--------||
D|----0---------2-----------0---------2---------||
A|---2---------2-----------2---------2----------||
E|--3---------------------3---------------------||

Riff 2
------
    G          Em         G          Em
e|----------------------------------------------||
B|----------------------------------------------||
G|-----0-0*-------0-0*-------0-0*-------0-0*----||
D|----0-----4----2----4-----0-----4----2-----4--||
A|---2----------2----------2----------2---------||
E|--3----------0----------3----------0----------||

* Note: Play these notes soft and faster after sweeping down. 
        They are quiet and quick but are there, and I believe
	played by another guitar, but it sounds alright with
	them in.

Also - riffs will be referred to as "R". 

The song is fairly easy, it's two riffs the entire thing.

------------------------
   Lyrics with Riffs
------------------------

-----
Intro
-----

[Riff 1 + Riff 2] x 1

-------
Verse 1
-------

R1               R2
Silver scents of Saint Augustine.

R1
Fire in the ground,

R2
Between my better teeth.

R1                   R2
We're dancing on the poison in their graves.

R1
At the end of the night,

R2
We'd all seen better days. 

--------
Chorus 1
--------

R2
I know you tried,
I know you're cursed.

R1                   R2
I know your best was still your worst,
R2                                  R1
When hollywood was calling out your name.
R2           R1           R2
Saint Augustine.

-------
Verse 2
-------

R1
If i stayed behind,
R2
Would you let your hair grow?
R1
I will forget,
R2
The favours that you owe.
R1                             R2
I'm dreaming of car wrecks and thunderstorms bright.
R1
Let's bury ourselves,
R2
and go haunt someone tonight.

--------
Chorus 2
--------

R2
I know you tried,
I know you're cursed.

R1                   R2
I know your best was still your worst,
R2                                  R1
When hollywood was calling out your name.
R2           R1
Saint Augustine.

-----
Outro
-----

R2           R1
Saint Augustine.
R2           R1
Saint Augustine.
R2*          G**
Saint Augustine.

* Note: Start slowing down your speed
** Note: Only strum strings six to three (your top four strings).
"            
Submit corrections

comments powered by Disqus
↑ Back to top | Band Of Horses Tabs for St Augustine. Lyrics for acoustic guitar and electric guitar. 1 Tablatures and chords are parodies/interpretations of the original songs. You may use it for private study, scholarship, research or language learning purposes only