» » »

Band Of Horses, Marry Song Tabs (ver.1)

Artists:  A B C D E F G H I J K L M N O P Q R S T U V W X Y Z # 

Marry Song Tabs (ver.1)

Band Of Horses Tabs
 Rating:
4/5 (4 votes)
Marry Song lessons Tabs too difficult? Try these video lessons and learn fast
                I did none of this, I just like different structure 
than the other chords offer. 
Along with lyric correction and the coda correction. 

-------------------------------------------------------------------------------
-------------------------------------------------------------------------------

Tuning: Standard
Capo on 1st Fret

Chords/intro:
G D C

intro/coda
--------------------------|
--------------------------|
--------------------------|
--------------7-4---5-2---|
------------------6-----3-|
-3~~~~~~~~~~~~------------| 2x

G                         D         C
I'll marry my lover in a place to admire
       G                           D           C
I don't have to even ask her I can look in her eyes
          C                G
And thank God that I am forgiven
         C
Or thank all of my friends
    D            C               G
To say I've been true or they forgotten

--------------------------------|   ------------|
--------------------------------|   ------------|
--------------------------------|   ------------|
--------------7-4---5-2---------|   --7-4---5---|
------------------6-----3----3-2|   ------6-----|
-(let G ring)-------------3-----|   ------------|

    G                   D        C
And weary my mind is to say the least
        G                   D           C
its been awful hard to just stand on my feet
        C                      G
I think I'll slow down if I am able
        C       
I won't drown in the ocean
   D            C            G
Or starve in my place at the table

----------------------------|   -------|
----------------------------|   -------|
----------------------------|   -------|
--------------7-4---5-2-----|   --7----|
------------------6-----3---|   -----3-|
-(let G ring)-------------3-|   -------|

       C                        G
Lucky ones are we all til it is over
      C           G
Everyone near and far
          C                    G
When you smile the sun it peaks through the clouds
       D                  C          G 
Never die for always be around and around and around

-----------------------------|   ---------|
----------------------------8|   ---------|
-----------------------------|   ---------|
--------------7-4---5-2------|   --7------|
------------------6-----3----|   -----3--3|
-(let G ring)-------------3--|   ---------|

G                          D            C
And how is your sister and what of your brother
G                     D          C
Extend hellos to your father and mother
            C                         G
What in the world would cause you any sorrow
             C
Lighten your load
              D                C        G
And see how I killed the wheel barrel I borrowed

--------------------------|   -------------------------|
--------------------------|   -------------------------|
--------------------------|   -------------------------|
--------------7-4---5-2---|   --------------7-4---5-2--|
------------------6-----3-|   ------------------6-----3|
-(let G ring)-------------|   -3~~~~~~~~~~~------------|

       C                        G
Lucky ones are we all til it is over
      C           G
Everyone near and far
          C                     G
When you smile the sun it peaks through the clouds
       D                  C          G 
Never die for always be around and around and around

-----------------------------|   ---------|
-----------------------------|   ---------|
----------------------------3|   --------3|
--------------7-4---5-2------|   --7------|
------------------6-----3----|   -----3---|
-(let G ring)-------------3-3|   --------3|

:end
            
Submit corrections

comments powered by Disqus
↑ Back to top | Band Of Horses Tabs for Marry Song. Lyrics for acoustic guitar and electric guitar. Tablatures and chords are parodies/interpretations of the original songs. You may use it for private study, scholarship, research or language learning purposes only