» » »

Band Of Horses, Boat To Row Tabs (ver.2)

Artists:  A B C D E F G H I J K L M N O P Q R S T U V W X Y Z # 

Boat To Row Tabs (ver.2)

Band Of Horses Tabs
Rating:
0/5 (0 votes)
Boat To Row lessons Tabs too difficult? Try these video lessons and learn fast
                Band of Horses New MRX Recordings- My First Tab magicnatesnyder

Verses: Picked Chords

"Dilly I..                    ..never wanted you"

E|-x-----------|                 E|-x----------|
A|---3---------|                 A|----6-------|
D|--------5----|                 D|---------8--|
G|--------5----|                 G|-------7----|
B|-----4-------|                 B|----6-------|
e|---3---------|                 e|-x----------|

1:23 Chorus: Sm. Distortion
"But maybe I made up my"   
E|-x-------------|
A|--------7------|
D|--------7------|
G|-----6---------|
B|--5------------|
e|--5------------|

    "Mind"
E|-x-------------|
A|---------5-----|
D|---------5-----|
G|------4--------|
B|---3-----------|
e|---3-----------|

   "Long"
E|-x-------------|    
A|---6-----------|     
D|--------8------|     
G|--------8------|     
B|--------8------|     
e|--------8------|

    "A"
E|-x-------------|
A|----5----------|
D|---------7-----|
G|---------7-----|
B|---------7-----|
e|---------7-----|

     "go"

E|--6------------|
A|--------8------|
D|--------8------|
G|-----7---------|
B|--6------------|
e|--6------------|

"Black Tie, Boat to Row for"
E|-x-------------|
A|--------7------|
D|--------7------|
G|-----6---------|
B|--5------------|
e|--5------------|

"You and I"

E|--6------------|
A|--------8------|
D|--------8------|
G|-----7---------|
B|--6------------|
e|--6------------|

"Should have Known"
E|-x-------------|
A|--------7------|
D|--------7------|
G|-----6---------|
B|--5------------|
e|--5------------|

"Shoulda Known"
E|--6------------|
A|--------8------|
D|--------8------|
G|-----7---------|
B|--6------------|
e|--6------------|

2:53 Interlude Picked, Then Strummed. 2 Chords

E|-x-------------|
A|---------8-----|
D|--10-----------|
G|--10-----------|
B|------7--------|
e|---------8-----|

E|-x-------------|
A|---------7-----|
D|---9-----------|
G|---9-----------|
B|---------7-----|
e|---------7-----|

Please Rate and Critique, thanks, Nate
            
Submit corrections

comments powered by Disqus
↑ Back to top | Band Of Horses Tabs for Boat To Row. Lyrics for acoustic guitar and electric guitar. Tablatures and chords are parodies/interpretations of the original songs. You may use it for private study, scholarship, research or language learning purposes only