» » »

Band Of Horses, Boat To Row Tabs (ver.1)

Artists:  A B C D E F G H I J K L M N O P Q R S T U V W X Y Z # 

Boat To Row Tabs (ver.1)

Band Of Horses Tabs
 Rating:
3.6/5 (5 votes)
Boat To Row lessons Tabs too difficult? Try these video lessons and learn fast
                i was looking for this tab, couldn't find one, so i tried my hand at making it. Feel 
to correct. its more of a shot in the dark.

-------------------------------------------------------------------------------
-------------------------------------------------------------------------------

Tuning: standard

verse / intro

e|-------------------------------------------------------------------------|
B|------4----4-------4-------4------------6----6-------6-----6-------------|
G|--------5-------------5-------------------7------------7-----------------|
D|----5--------5---------------5--------7--------7-------------7-----------|
A|-3----------------3----------------5---------------5---------------------|
E|-------------------------------------------------------------------------|

Bridge

e|------4-------4-------4-------4-------3-------3-------3-------3----------|
B|----4-------4-------4-------4-------4-------4-------4-------4------------|
G|--3-------3-------3-------3-------3-------3-------3-------3--------------|
D|-------------------------------------------------------------------------|
A|-------------------------------------------------------------------------|
E|-------------------------------------------------------------------------|

e|-4-4-4-4-4--4--4-4-44--4-4---3-3-3-3-3--3--3-3-33--3-3-------------------|
B|-4-4-4-4-4--4--4-4-44--4-4---4-4-4-4-4--4--4-4-44--4-4-------------------|
G|-3-3-3-3-3--3--3-3-33--3-3---3-3-3-3-3--3--3-3-33--3-3-------------------|
D|-------------------------------------------------------------------------|
A|-------------------------------------------------------------------------|
E|-------------------------------------------------------------------------|

Chorus

e|-------------------------------------------------------------------------|
B|-------------------------------------------------------------------------|
G|5-5-5-5-5-5-5-5-7-7-7-7-7-7-7-8-8-8-8-8-8-8-8-10-10-10-10-10-10-10-10----|
D|5-5-5-5-5-5-5-5-7-7-7-7-7-7-7-8-8-8-8-8-8-8-8-10-10-10-10-10-10-10-10----|
A|3-3-3-3-3-3-3-3-5-5-5-5-5-5-5-6-6-6-6-6-6-6-6-8--8--8--8--8--8--8--8-----|
E|-------------------------------------------------------------------------|

no where near perfect or acurate but its the only thing so far.
            
Submit corrections

comments powered by Disqus
↑ Back to top | Band Of Horses Tabs for Boat To Row. Lyrics for acoustic guitar and electric guitar. Tablatures and chords are parodies/interpretations of the original songs. You may use it for private study, scholarship, research or language learning purposes only