» » »

They Provide The Paint For The Picture Perfect Masterpiece That You Will Paint On The Inside Of Your Tabs (ver.1)

Artists:  A B C D E F G H I J K L M N O P Q R S T U V W X Y Z # 

They Provide The Paint For The Picture Perfect Masterpiece That You Will Paint On The Inside Of Your Tabs (ver.1)

Bandits Of The Acoustic Revolution
Rating:
5/5 (5 votes)

Hard to play? Try these video lessons and learn fast.
                -------------------------------------------------------------------------------
They Provide The Paint For The Picture Perfect Masterpeice That You Will Paint On The 
Of Your Eyelids - Bandits Of The Acoustic Revolution
-------------------------------------------------------------------------------

Tuning:standard

Chords:
    A#    F#    F     C#    G#
e|--1--|--2--|--1--|--4--|--4--|---------------------------------------------------|
B|--3--|--2--|--1--|--6--|--4--|---------------------------------------------------|
G|--3--|--3--|--2--|--6--|--5--|---------------------------------------------------|
D|--3--|--4--|--3--|--6--|--6--|---------------------------------------------------|
A|--1--|--4--|--3--|--4--|--6--|---------------------------------------------------|
E|-----|--2--|--1--|-----|--4--|---------------------------------------------------|


The intro lead part should probably be finger picked, but it can be done with
a pick aswell.
e|---------------------------------------------------------------------------|
B|---------------------------------------------------------------------------|
G|-----------------------8-------------------------------------8------8--/10-|
D|-----8-10-11-----10-11----11-10-11-10-8---8--10--11--10--11-----11---------|
A|--8------------------------------------------------------------------------|
E|---------------------------------------------------------------------------|


e|---------------------------------------------------------------------------|
B|-11*---10*---7*---10*---11*---10*---7*---10*-------------------------------|
G|----------------------------------------------6h8-6---6----6h8-6-8p6-------|
D|----7*-----7*---7*----7*----7*----7*---7*-----------8----------------8-----|
A|---------------------------------------------------------------------------|
E|---------------------------------------------------------------------------|

e|---------------------------------------------------------------------------|
B|----------------------------9-7-6-7-6---6----------------------------------|
G|------5-6-5-6-8-6-5-6-5---------------8------------------------------------|
D|--6h8-------------------8--------------------------------------------------|
A|---------------------------------------------------------------------------|
E|---------------------------------------------------------------------------|


There is a man with no face and a name I don’t remember
           A#                     F#           F
always in the house in the middle of the woods
A#                         F#            F
and he said once “Son, don’t you laugh out loud
    A#                      F#             F
for they are listening, oh, they are listening.
A#                          F#       F

    Oh you’ve got to be strong,...
e|---------------------------------------------------------------------------|
B|---------------------------------------------------------------------------|
G|---------3-------------3---------------------------------------------------|
D|------3------3------3-----3-------4-----3-----4------3---------------------|
A|--1-------------1----------------------------------------------------------|
E|-------------------------------2-----1-----2------1------------------------|

    Oh, you’ve got to keep      holding on.
e|--------------------------------------------------------------------------------|
B|--------------------------------------------------------------------------------|
G|---------3-------------3--------------------------------------------------------|
D|------3------3------3-----3----3-3---3------------------------------------------|
A|--1-------------1--------------3-3---3------------------------------------------|
E|-------------------------------1-1---1------------------------------------------|

   It’s now just a matter of time”
e|---------------------------------------------------------------------------|
B|---------------------------------------------------------------------------|
G|---------------------------------3----------5--3----------------3----------|
D|---------------------------------3----4--3-----3---4-4-4-3-3-3--3-----4--3-|
A|---------------------------------1----4--3--3--1---4-4-4-3-3-3--1-----4--3-|
E|--------------------------------------2--1---------2-2-2-1-1-1--------2--1-|

Then:

A#|A#|F#|F |              X4
A#|A#|F#|F#|C#|C#|G#|G#|  X2
A#|A#|F#|F |              X8
A#|A#|F#|F#|C#|C#|G#|G#|  X2
A#|A#|F#|F |              X12
A#|A#|F#|F |              X8 (it speeds up)
A#|A#|F#|F#|C#|C#|G#|G#|  X8 (slows down again)

Breakdown/Bass Solo:
approx. Timline|-A#----------A#--A#----A#------------------------------------|  X2

Then:
A#|A#|F#|F |              X8
A#|A#|F#|F#|C#|C#|G#|G#|  X2
A#|A#|F#|F |              X7

outro
e|-1----1-1----1-1-----1-1-----1-1----1-1-----1-1-1-1-1-1-1-1-1-1-------------------|
B|-3----3-1----1-3-----3-1-----2-3----3-1-----1-3-3-3-3-3-3-3-1-3-------------------|
G|-3----3-2----2-3-----3-2-----3-3----3-2-----2-3-3-3-3-3-3-3-2-3-------------------|
D|-3----3-3----3-3-----3-3-----3-3----3-3-----3-3-3-3-3-3-3-3-3-3-------------------|
A|-1----1-3----3-1-----1-3-----3-1----1-3-----3-1-1-1-1-1-1-1-3-1-------------------|
E|--------1----1---------1-----1--------1-----1---------------1---------------------|


| /  slide up
| \  slide down
| h  hammer-on
| p  pull-off
| ~  vibrato
| +  harmonic
| x  Mute note
| *  Arpegated (hold note)
===============================================================================
            
Hard to play? Try these video lessons and learn fast. | Correct




comments powered by Disqus
↑ Back to top | Tablatures and chords are parodies/interpretations of the original songs. You may use it for private study, scholarship, research or language learning purposes only