» » »

They Provide The Paint For The Picture Perfect Masterpeice That You Will Paint On The Insides Of You Tabs (ver.1)

Artists:  A B C D E F G H I J K L M N O P Q R S T U V W X Y Z # 

They Provide The Paint For The Picture Perfect Masterpeice That You Will Paint On The Insides Of You Tabs (ver.1)

Bandits Of The Acoustic Revolution
Rating:
5/5 (2 votes)
Tabs too difficult? Try these video lessons and learn fast.
                -------------------------------------------------------------------------------

   They Provide The Paint For The Picture Perfect Masterpeice That You
             Will Paint On The Insides Of Your Eyelids -
                Bandits of the Acoustic Revolution



-------------------------------------------------------------------------------

Guitar 1 is this for the intro, repeated several times:

e|---------------------------|
B|---------------------------|
G|--3-----3------------------|
D|-----------------4-----3---|
A|-----1-----1---------------|
E|--------------2-----1------|

And then this, once:

e|---------------------------------------------------|
B|---------------------------------------------------|
G|--------3-----------3------------------------------| (con't)
D|-----3-----3-----3-----3-----4-----3-----4-----3---|
A|--1-----------1------------------------------------|
E|--------------------------2-----1-----2-----1------|

e|-----------------------------------|
B|-----------------------------------|
G|--------3-----------3--------------|
D|-----3-----3-----3-----3--3-3--3---|
A|--1-----------1-----------3-3--3---|
E|--------------------------1-1--3---|

This is the lead. It's played by two guitars trading in and out, but it's much more 
to just do both parts on one:

e|--------------------------------------------------------------------|
B|--------------------------------------------------------------------|
G|--------------------8---------------------------------8----8-8/10---|
D|-----8-10-11--10-11----11-10-11-10-8--8--10-11--10-11---11----------|
A|--8-----------------------------------------------------------------|
E|--------------------------------------------------------------------|

e|----------------------------------|
B|----------------------------------|
G|-11--10--8--10--11--10--8--10-----|
D|---11--11-11--11--11--11-11--11---|
A|----------------------------------|
E|----------------------------------|

e|------------------------------|
B|------------------------------|
G|------------------------------|
D|---6h8--6---6--6h8--6-8p6-----|
A|----------8---------------8---|
E|------------------------------|

e|--------------------------------------------|
B|--------------------------/9-7-6-7-6---6~---|
G|------5-6-5-6-8-6-5-6-5--------------8------|
D|--6h8-------------------8-------------------|
A|--------------------------------------------|
E|--------------------------------------------|

Now, the guitar from now on just plays |A#|F#F| for the rest of the verses, and 
for the choruses. Chori.

But see, the horns parts are pretty cool in this song too. So, I've decided to be a nice 
and tab THEM out for you, too.

This is the first real horn part, right here, transcribed to guitar:

e|------1--2-1--------1------1--2-1-2-4-1------1--2-1------1-2-1-2-4--4-1-------|
B|----2---------4-2-2-----2-----------------2--------4-2-2----------------4-2-1-|
G|--3-------------------3-----------------3-------------------------------------|
D|------------------------------------------------------------------------------|
A|------------------------------------------------------------------------------|
E|------------------------------------------------------------------------------|

That then leads into the next part:

e|--1~------1-2---1~--1-1-1-1-2-1-------1-----------------1~-----------|
B|------4~------4-----------------4-2-2-----2~--1~--1-2-4------2p1-2---|
G|---------------------------------------------------------------------|
D|---------------------------------------------------------------------|
A|---------------------------------------------------------------------|
E|---------------------------------------------------------------------|

This last part is played again later, then the fast part comes up. The horns for that 
are as follows:

e|--1--1-1-1----1-2-1--1--1-1-1------------|
B|------------4------------------4-2-1-----|
G|-------------------------------------3---| x4
D|-----------------------------------------|
A|-----------------------------------------|
E|-----------------------------------------|

The parts I've tabbed are all played a few times over the course of the song. Listen to 
the placement.

I don't have the song playing right now, but off the top of my head I believe that's all 
is to it. Let me know if anything's missing and I'll fill in the spaces.

Muchas gracias. Viva la revolucion!

-Gus Pablo

| /  slide up
| \  slide down
| h  hammer-on
| p  pull-off
| ~  vibrato
| +  harmonic
| x  Mute note
===============================================================================
            
Tabs too difficult? Try these video lessons and learn fast.


comments powered by Disqus
↑ Back to top | Tablatures and chords are parodies/interpretations of the original songs. You may use it for private study, scholarship, research or language learning purposes only