» » »

Intro This Is A Call To Arms Tabs (ver.1)

Artists:  A B C D E F G H I J K L M N O P Q R S T U V W X Y Z # 

Intro This Is A Call To Arms Tabs (ver.1)

Bandits Of The Acoustic Revolution
Rating:
0/5 (0 votes)

Hard to play? Try these video lessons and learn fast.
                This is the guitar pro tab of this song
Standard tuning: EADGBe
e|------------------------------------|
B|-------1p0--1--3--1--0h1p0----0h1---|   This is wrong I know
G|----------------------------0-------|    but I can't quite make it
D|------------------------------------|
A|--0---------------------------------|
E|------------------------------------|  (4 times)

e|--------1-----|  e|--------0---   e|--------0---|
B|----3---------|  B|----1-------   B|----0-------|
G|------2-------|  G|------2-----   G|------1-----|
D|--0-----------|  D|------------   D|------------|    (4 times each
A|--------------|  A|--0---------   A|------------|         2 times)
E|--------------|  E|------------   E|--0---------|

e|--------0---------0---------0---------0---|
B|----0---------0---------0---------0-------|
G|------1---------1---------1---------1-----|
D|----------------------3---------2---------|
A|------------------------------------------|   (2 times)
E|--0---------0-----------------------------|

e|--------0---------0---|
B|----0---------0-------|
G|------1---------1-----|
D|----------------------|
A|----------------------|
E|--0---------0---------|

e|-----------0-----------0---|
B|-----0-----------0---------|
G|--------1-----------1------|
D|--2-----0------------------|
A|--------------3-----2------|   (2 times)
E|---------------------------|

e|-----------0-----------0-----------0-----------0---|
B|-----0-----------0-----------0-----------0---------|
G|--------1-----------1-----------1-----------1------|
D|--2-----3-----5-----3-----2-----0------------------|
A|--------------------------------------3-----2------|
E|---------------------------------------------------|

e|-----------0-----------0-----------0-----------0---|
B|-----0-----------0-----------0-----------0---------|
G|--------1-----------1-----------1-----------1------|
D|--2-----2-----0-----0-----------------------2------|
A|--------------------------3-----3-----2------------|
E|---------------------------------------------------|

e|------------------------------------|
B|-------1p0--1--3--1--0h1p0----0h1---|
G|--2-------------------------0-------|
D|--2---------------------------------|
A|--0---------------------------------|  (3 times)
E|------------------------------------|

e|------------------0-----------------|
B|-------1p0--1--1--1-----------------|
G|------------------2-----------------|
D|------------------2-----------------|
A|--0---------------0-----------------|
E|------------------------------------|

e|--1---------0--0--0--0--0-0-0--0--0--------1----|    These are the chords
B|--3---------1--0--1--3--1p0h1--0--1--------3----|    without the rythm.
G|--2---------2--2--2--2--2-2-2--2--2--------2----|   It's the same
D|--0---------2--2--2--2--2-2-2--2--2--------0----|   progression of hammers
A|------------0--0--0--0--0-0-0--0--0-------------|   and pulls as the
E|------------------------------------------------|   1st part of the song

e|--0--x--0-0--x--0----|--0-0-0-0-x--0--1-1-1-1----|
B|--1--x--1-0--x--0----|--1-1-1-1-x--1--3-3-3-3----|
G|--2--x--2-1--x--1----|--2-2-2-2-x--2--2-2-2-2----|
D|--2--x--2-2--x--2----|--2-2-2-2-x--2--0-0-0-0----|
A|-----x----2--x--2----|--0-0-0-0-x--0-------------|
E|-----x----0--x--0----|---------------------------|


e|--0--x--0-0--x--0---|--0-----------------|
B|--1--x--1-0--x--0---|--1-----------------|
G|--2--x--2-1--x--1---|--2-----------------|
D|--2--x--2-2--x--2---|--2-----------------|
A|--0--x--0-2--x--2---|--0-----------------|
E|----------0--x--0---|--------------------|

I hope you like it. It's my first tab though it's not really mine. Props to the guy who did this
            
Hard to play? Try these video lessons and learn fast. | Correct




comments powered by Disqus
↑ Back to top | Tablatures and chords are parodies/interpretations of the original songs. You may use it for private study, scholarship, research or language learning purposes only