» » »

Bandits, Puppet Bass tabs (ver.1)

Artists:  A B C D E F G H I J K L M N O P Q R S T U V W X Y Z # 

Puppet Bass tabs (ver.1)

Bandits Tabs
 Rating:
4/5 (4 votes)
Puppet lessons Tabs too difficult? Try these video lessons and learn fast
1
                Tuning: Standart (E A D G)



x - Dead Note
/ - Slide up


Intro

G|---------------|----------| x2
D|---------------|----------|
A|-----1-3-1-3-3-|3-5-3-5-3-|
E|3--3-----------|----------|


Verse

G|-------------|-------------|------------|------------| 
D|-------------|-------------|------------|------------|
A|---------1---|3--3-x---1-3-|5--5-55/8-10|------------|
E|3--1-1-1---3-|-------3-----|------------|3--3--1-3-1-|

G|-------------|-------------|------------|------------|
D|-------------|-------------|------------|----3/5-5-3-|
A|---------1---|3--3-x---1-3-|5--5-55/8-10|------------|
E|3--1-1-1---3-|-------3-----|------------|3--3--------|


Pre Chorus

G|-------------------|--0-0-----------------------|---------------------|
D|1--1-0-------------|1-----1---4-4---------------|---------------------|
A|---------------1---|--------5-----5---1-----1---|3--3-3-3-3-3-5--5-5-5|
E|--------3--3-3---3-|----------------3---3-3---3-|---------------------|


Chorus

G|----------------------------------------------| x2
D|----2/4-4-5--5-5-5-5--------------------------|
A|---------------------3--3-3-3-3-3-5--5-5-3-5-3|
E|3-3-------------------------------------------|


Then play
-> Intro 
-> Verse
-> Pre Chorus
-> Chorus
-> Intro
again!


Interlude

G|8---7---------3---|8-12-8-7-11-7---3---------|------------------|-----------5/7777|
D|--------5---5---5-|--------------5---5-------|------------------|-----------------|
A|------------------|----------------------1---|6---5---------1---|33333333555------|
E|------------------|--------------------3---3-|--------3---3---3-|-----------------|


Then play
-> Pre Chorus
-> Chorus x2
-> Intro
again!



That's it should be at least 90% correct! Rate it if you like it!
            
Submit corrections

comments powered by Disqus
↑ Back to top | Bandits Bass for Puppet. Lyrics for acoustic guitar and electric guitar. 1 Tablatures and chords are parodies/interpretations of the original songs. You may use it for private study, scholarship, research or language learning purposes only