» » »

Atlantic City Tabs (ver.1)

Artists:  A B C D E F G H I J K L M N O P Q R S T U V W X Y Z # 

Atlantic City Tabs (ver.1)

The Band
Rating:
5/5 (2 votes)

Tabs too difficult? Try these video lessons and learn fast.
                (Intro)
Intro

It's a weird tuning but sounds really well with the mandolin intro.  Tune "b" 
string down to an "a"

e---5-5-5---0-0-0---0-0-0---0-0-0---0-|
b---0-0-0---0-0-0---4-4-4---2-2-2---0-|
g-------------------------------------|
d-------------------------------------|
a-------------------------------------|
E-------------------------------------|

Repeat through out song
   F#m  A   D   A
e---x---x---2---x-|
b---x---4---5---4-|
g---3---2---2---2-|
d---4---2---0---2-|
a---4---0---0---0-|
E---2---x---x---x-|
            
Tabs too difficult? Try these video lessons and learn fast.




comments powered by Disqus
↑ Back to top | Tablatures and chords are parodies/interpretations of the original songs. You may use it for private study, scholarship, research or language learning purposes only