» » »

Bamboo, Wating In Vain Tabs (ver.1)

Artists:  A B C D E F G H I J K L M N O P Q R S T U V W X Y Z # 

Wating In Vain Tabs (ver.1)

Bamboo Tabs
 Rating:
4/5 (4 votes)
Wating In Vain lessons Tabs too difficult? Try these video lessons and learn fast
                Song : Waiting in vain

Intro:

Amaj7-Dmaj7
I dont wanna wait
Amaj7-Dmaj7
For your love

Verse 1 :

Amaj7         Dmaj7
First time i placed my eyes on you girl
Amaj7                Dmaj7
My heart says follow through
Amaj7                           Dmaj7
But what i know now is that i'm way down on your line
Amaj7                    Dmaj7
But the waitin' feelin's fine
Amaj7                   Dmaj7
So dont treat me like a puppet on a string
Amaj7                      Dmaj7
'Cause i know how to do my thing
Amaj7            Dmaj7
Dont talk to me as if you think I'm dumb
Amaj7                        Dmaj7
I wanna know when your gonna come,see...

Chorus:
Amaj7                Dmaj7
I dont wanna wait in vain for your love(2x)
  Amaj7-Dmaj7      Amaj7-Dmaj7
I dont wanna wait for your love  <---listen to the record to get the timing

1st Solo:
|-----------------------------------------10------------------10----10-12---|
|---------------------7-8-7-8-10-12-12/13----12\10-8-10-10/12----12---------|
|-----------4/5h7-7/9-------------------------------------------------------|
|-------5h7-----------------------------------------------------------------|
|---5/7---------------------------------------------------------------------|
|---------------------------------------------------------------------------|

                             FAST PART
              |--------------------------------------------------------------|
----------------------------------------------------10/12-12-----------------|
---12\10-8-10--12-11-12-11-10-9-11-10-8-10-8-10p8------------10\8-10-8-------|
-----------------------------------------------------------------------------|
-----------------------------------------------------------------------------|
-----------------------------------------------------------------------------|
-----------------------------------------------------------------------------|

-------------------10/12-12-------------------------------------------------|
---10/12\10-8-10-8----------10\8-10-10/12-8------------8---8-10/12\10-10----|
--------------------------------------------9-7--9-7-9---9------------------|
----------------------------------------------------------------------------|
----------------------------------------------------------------------------|
----------------------------------------------------------------------------|

---------------------------|
-------9-7-7-5\4-----------|
-----------------7-5-------|
---------------------7p5h7-|
---------------------------|

Verse 2:


Like I said
Gmaj7                          Cmaj7
Its been three years since I'm knockin on your door
Gmaj7                 Cmaj7
And I still can knock some more
Gmaj7               Cmaj7
Ooh girl, Ooh girl, is it really numb i wanna know
Gmaj7                  Cmaj7
I wanna know if its for sure
Gmaj7             Cmaj7
You see, in life, there's a lot to grief
Gmaj7               Cmaj7
But your love is my relief
Gmaj7                 Cmaj7
Tears in my eyes burn, tears in my eyes burn
Gmaj7                                Cmaj7
As I'm waiting, as I'm waiting for my turn, See...
Gmaj7-Cmaj7       Cmaj7-C#maj7-Dmaj7
I dont wanna wait, for your love...

2nd chorus:

Amaj7                Dmaj7
I dont wanna wait in vain for your love(2x)
  Amaj7-Dmaj7      Amaj7-Dmaj7
I dont wanna wait for your love

Bridge:

Amaj7           Dmaj7  Gmaj7                Cmaj7     C#maj7-Dmaj7
'Cause summer is here, and I'm still waiting there
Amaj7           Dmaj7  Gmaj7                Cmaj7
'Cause winter is here, and I'm still waiting there...

Coda:

Gmaj7
I dont wanna(4x)
Cmaj7
I dont wanna wait in vain
Gmaj7
I dont wanna(4x)
Cmaj7
I dont wanna wait in vain
Gmaj7
I dont wanna(4x)
Cmaj7
I dont wanna wait in vain
Gmaj7
I dont wanna(4x)
Cmaj7
I wanna fly, I wanna fly...

2nd solo:
|---10p8-7h8-7-------------------------10p8-7h8-7---------------------------|
|--------------8-7h8p7----------------------------10-7h8p7------------------|
|----------------------7-7h9-2h3p2p0h2---------------------9-7-7h9p7-7h9-7--|
|---------------------------------------------------------------------------|
|---------------------------------------------------------------------------|
|---------------------------------------------------------------------------|

-------------------------|
-------------------------|
---7\5-4h5-4-------------|
-------------7-4h5p4-----|
---------------------9-7-|
-------------------------|
            
Submit corrections

comments powered by Disqus
↑ Back to top | Bamboo Tabs for Wating In Vain. Lyrics for acoustic guitar and electric guitar. Tablatures and chords are parodies/interpretations of the original songs. You may use it for private study, scholarship, research or language learning purposes only