» » »

Waiting In Vain Tabs (ver.1)

Artists:  A B C D E F G H I J K L M N O P Q R S T U V W X Y Z # 

Waiting In Vain Tabs (ver.1)

Bamboo
Rating:
0/5 (0 votes)

Tabs too difficult? Try these video lessons and learn fast.
                Waiting in Vain


First Solo:                                             <------fast--------
 
|---------------7810-7p5-------------10--1012------------------------------|
|---------787810---------88h10~-10/12--12----12p10-8108~-121112-10911-10~--|
|-------79-----------------------------------------------------------------|
|-57-7/9-------------------------------------------------------------------|
|--------------------------------------------------------------------------|
|--------------------------------------------------------------------------|
 ------->
|--------10h12~-------------------10h12------------------------------------|
|-108108~-------108108-10/12-8108~-----10810-10/12-8------8--10/12-1088----|
|---------------------------------------------------97~979-97--------------|
|--------------------------------------------------------------------------|
|--------------------------------------------------------------------------|
|--------------------------------------------------------------------------|

|----------------------|
|----------------------|
|-977------------------|
|-----979-4h54---------|
|--------------757~~---|
|----------------------|

Second Solo:

|-10p8-7h87--------------------10p8-7h87-----------------------------------|
|-----------878p7------------------------787p8-----------------------------|
|-----------------979~-------------------------979p7-7h97~-7p5-4h54--------|
|----------------------8p7-57~---------------------------------------------|
|--------------------------------------------------------------------------|
|--------------------------------------------------------------------------|

|-------------------------------|---------------78--10--12--10--12--10--12-|
|-------------------------------|------88~-7810---12--12--12--12--12--12---|
|--------------------------45~--|---7h9------------------------------------|
|-75-5p4-0042~------45~457------|-9----------------------------------------|
|--------------5457-------------|------------------------------------------|
|-------------------------------|------------------------------------------|

|-12/14-1415-----------------14h15---------14h15--|------------------------|
|-----------1313p12----------------13p1212--------|-1312-------------------|
|------------------1412---------------------------|-----1214---------------|
|----------------------1412~----------------------|----------1214----------|
|-------------------------------------------------|--------------1214------|
|-------------------------------------------------|------------------------|

|--------------------------------------------------------------------------|
|-------------------------5787---------------------------------------------|
|--------------------4h54~-----9754----------------------------------------|
|-------------5--4h54---------------54-------------------------------------|
|-10129-9h10-7-7-----------------------75~53~23~20~------5p4-5p4-5p4-5p4---|
|---------------------------------------------------32h3~------------------|

|---------------------------------------------------------------10~~-------|
|------------------------------------------------------------78------------|
|--------------------------------------12*-------------5-7/9---------------|
|----------5p4-5p4-5p4-5p4~-------------------------57---------------------|
|-5p4-55h7------------------75h74----------54545457------------------------|
|---------------------------------979-2------------------------------------|

|-----10-----11--|-14-14h15---------|--------------------------------------|
|---11-----11----|----------1515~~--|------------------------12h13-12------|
|-12-----13------|------------------|-141214-14/16-12----------------------|
|----------------|------------------|-----------------121412---------------|
|--repeat 6x-----|------------------|--------------------------------------|
|----------------|------------------|--------------------------------------|

|---15----15----15----15---------------------------------------------------|
|-12--1212--1212--1212--12~~-88--------------------------------------------|
|-------------------------------9~-99p7~-4-4h5-----------------------------|
|----------------------------------------------75--------------------------|
|-------------------------------------------------75~~---------------------|
|--------------------------------------------------------------------------|


Enjoy Playing...This tab is 99% accurate...
Madali lng 2 pre!
            
Tabs too difficult? Try these video lessons and learn fast.




comments powered by Disqus
↑ Back to top | Tablatures and chords are parodies/interpretations of the original songs. You may use it for private study, scholarship, research or language learning purposes only