>
 >
Truth

Truth Guitar Tabs

Bamboo - Truth chords, tabs, tablatures, lyrics

Guitar lessons | Add/correct | Request | Top 50 tabs Artists:  A B C D E F G H I J K L M N O P Q R S T U V W X Y Z 0-9

Truth Guitar Tabs – Bamboo

CD, Sheet music, Poster

Do you like Truth? Share with your friends now
ChordsTabsUkulele

Mga taga-balut kumusta na kayong lahat??
Mga dude pasensya na kung medyo mae mali, baguhan pa lang me. yung mga mali 
pakicorrek na lamang... 

Intro:(Drum beats)

E|-6-6-8-8--10-11-10-11-10-11-6-6-8-8--10-11h12-------|
B|-6-6-8-8--10----------------6-6-8-8--10------12p10--|laruin niyo lang cool 
G|-7-7-9-9--11----------------7-7-9-9--11-------------| po yan!!

Chords used:

Bb :  X13331
Cm :  X35543
Dm :  X57765


Verse 1:

Bb         Cm             Dm
Can't believe how you set me free

Bb           Cm          Dm
The way you purify this soul don't you know

Bb              Cm        Dm
Got you into my arms now I'm never letting go

Bb       Cm              Dm
This old dog is finally home... finally home... GO!

Chorus

Bb       Cm
Tell me what you want

              Dm
I'll pay the price


What's money I'll roll the dice

        Bb
Lose it all I take the fall

            Cm
I'll let it ride

    Dm
As long as I have you at my side

Interlude:

E|-12h14-11--10-9---------------------------------------------------|
B|---------------12-12/14-11-10----8----10------12-11h12------------|
G|------------------------------11--10-9---9-10----------12-10-10---|
D|------------------------------------------------------------------|
A|------------------------------------------------------------------|
E|------------------------------------------------------------------|

E|-11-12-13-12-11-12-11-------------9h10-10-------------------------|
B|---------------------10-------8h10-------10-5h7-5-8-6----------11-|
G|---------------------------7h9------------------------9-6-10-12---|
D|------------------------6h8---------------------------------------|
A|------------------------------------------------------------------|
E|------------------------------------------------------------------|

E|-------------18~--------------------------------------------------|
B|-12-14-16-18------------------------------------------------------|
G|------------------------------------------------------------------|

VErse 2: (Bb-Cm-Dm) paulit ulit lng
Friend or foe you come to me
Wasn't sure how deep a hole I was getting into
Yet I choose to wake up every mornin with a smile on my face
Or see life for what it is one big fat race... GO!

Chorus

Bb       Cm
Tell me what you want

              Dm
I'll pay the price


What's money I'll roll the dice

        Bb
Lose it all I take the fall

            Cm
I'll let it ride

    Dm
As long as I have you at my side


Bridge:

Cm               Dm  
I've played the fool
Cm        
Thinking I can catch you off guard
              Dm
and score another night with you
Cm                          Dm
But the tables have been turned
                     Cm
This boy's about to get burned
             Dm
But before I go I gotta know - gotta know

(Bb-Cm-Dm) ulit ulitin nlang hanggang matapos

Let's not forget
You kept me waiting
What can I do to get through to you
Tired of singin to myself
I need a lesson
I need a blessing
The shoe fits all we need is a little glue
I hate what you do
Tell me what you want
Tell me what you want
Tell me what you want
Tell me what you want 





Comments


Popular Bamboo tabs & chords
Ang Gugma Ni Arshill Chords
Dinner At 6 Chords
Hudas 2 Chords
Kailan Chords
Masaya 1 Tabs
Noypi Tabs
Hudas Ukulele
Looking Out For No 1 Ukulele
Sunshine Song Ukulele
Waiting In Vain Ukulele


Song lyrics



↑ Back to top | Tablatures and chords are parodies/interpretations of the original songs. You may use it for private study, scholarship, research or language learning purposes only
© 2014 AZChords.com Contact us | Privacy policy | DMCA | Add/correct tabs | Request tabs | Top 50 tabs