» » »

Bamboo, Mr Clay Tabs (ver.2)

Artists:  A B C D E F G H I J K L M N O P Q R S T U V W X Y Z # 

Mr Clay Tabs (ver.2)

Bamboo Tabs
 Rating:
4/5 (4 votes)
Mr Clay lessons Tabs too difficult? Try these video lessons and learn fast
1
                tuning: EADGBe

note: there you go! this is as accurate as i can get!!! pinakinggang kong mabuti!
im sure you're gonna like this one right here!!.. enjoy!!!
hi sa lahat ng taga MICA!!! woohoo!!... hi din kay JASMINE!!.. sa G4... and kay SHENSHEN!!...0shigeh!!!

intro:

|-----------------|-----------------|-----------------|-----------------|
|-----------------|-----------------|-----------------|-----------------|
|-----------------|-----------------|-----------------|-----------------|(2x)
|-7-7-7-7-7-7-7-7-|-7-7-7-7-7-7-7-7-|-7-7-7-7-7-7-7-7-|-7-7-7-7-7-7-7-7-|
|-7-7-7-7-7-7-7-7-|-8-8-8-8-8-8-8-8-|-9-9-9-9-9-9-9-9-|-8-8-8-8-8-8-8-8-|
|-5-5-5-5-5-5-5-5-|-5-5-5-5-5-5-5-5-|-5-5-5-5-5-5-5-5-|-5-5-5-5-5-5-5-5-|


verse1:

|-----------------|-----------------|-----------------|-----------------|
|-----------------|-----------------|-----------------|-----------------|
|-----------------|-----------------|-----------------|-----------------|(2x)
|-7---------------|-7---------------|-7---------------|-7---------------|
|-7---------------|-8---------------|-9---------------|-8---------------|
|-5---------------|-5---------------|-5---------------|-5---------------|

|-----------------|-----------------|-----------------|
|-----------------|-----------------|-----------------|
|-----------------|-----------------|-----------------|
|-7-7-7-7-7-7-7-7-|-7-7-7-7-7-7-7-7-|-7-7-7-7-7-7-7-7-|
|-7-7-7-7-7-7-7-7-|-8-8-8-8-8-8-8-8-|-9-9-9-9-9-9-9-9-|
|-5-5-5-5-5-5-5-5-|-5-5-5-5-5-5-5-5-|-5-5-5-5-5-5-5-5-|

|-----------------|-----------------|
|-----------------|-----------------|
|-----------------|-----------------|
|-3-3-3-3-3-3-3-3-|-5-5-5-5-5-5-5-5-|
|-3-3-3-3-3-3-3-3-|-5-5-5-5-5-5-5-5-|
|-1-1-1-1-1-1-1-1-|-3-3-3-3-3-3-3-3-|


verse2:

|-----------------|-----------------|-----------------|-----------------|
|-----------------|-----------------|-----------------|-----------------|
|-----------------|-----------------|-----------------|-----------------|
|-7-----7-----7---|-7-----7-----7---|-7-----7-----7---|-7-----7-----7---|
|-7-----7-----7---|-8-----8-----8---|-9-----9-----9---|-8-----8-----8---|
|-5-----5-----5---|-5-----5-----5---|-5-----5-----5---|-5-----5-----5---|

|-----------------|-----------------|-----------------|
|-----------------|-----------------|-----------------|
|-----------------|-----------------|-----------------|
|-7-----7-----7---|-7-----7-----7---|-7-----7-----7---|
|-7-----7-----7---|-8-----8-----8---|-9-----9-----9---|
|-5-----5-----5---|-5-----5-----5---|-5-----5-----5---|

|-----------------|-----------------|
|-----------------|-----------------|
|-----------------|-----------------|
|-3-3-3-3-3-3-3-3-|-5-5-5-5-5-5-5-5-|
|-3-3-3-3-3-3-3-3-|-5-5-5-5-5-5-5-5-|
|-1-1-1-1-1-1-1-1-|-3-3-3-3-3-3-3-3-|


chorus:

|-----------------|-----------------|-----------------|-----------------|
|-----------------|-----------------|-----------------|-----------------|
|-----------------|-----------------|-----------------|-----------------|
|-5-5-5-5-5-5-5-5-|-7-7-7-7-7-7-7-7-|-3-3-3-3-3-3-3-3-|-5-5-5-5-5-5-5-5-|
|-5-5-5-5-5-5-5-5-|-7-7-7-7-7-7-7-7-|-3-3-3-3-3-3-3-3-|-5-5-5-5-5-5-5-5-|
|-3-3-3-3-3-3-3-3-|-5-5-5-5-5-5-5-5-|-1-1-1-1-1-1-1-1-|-3-3-3-3-3-3-3-3-|

|-----------------|-----------------|-----------------|
|-----------------|-----------------|-----------------|
|-----------------|-----------------|-----------------|
|-5-5-5-5-5-5-5-5-|-7-7-7-7-7-7-7-7-|-3-3-3-3-3-3-3-3-|
|-5-5-5-5-5-5-5-5-|-7-7-7-7-7-7-7-7-|-3-3-3-3-3-3-3-3-|
|-3-3-3-3-3-3-3-3-|-5-5-5-5-5-5-5-5-|-1-1-1-1-1-1-1-1-|

|-----------------|-----------------|-----------------|
|-----------------|-----------------|-----------------|
|-----------------|-----------------|-----------------|
|-5-5-5-5-x-3-3-3-|-5-5-5-5-x-3-3-3-|-5-5-5-5-x-3-3-3-|
|-5-5-5-5-x-3-3-3-|-5-5-5-5-x-3-3-3-|-5-5-5-5-x-3-3-3-|
|-3-3-3-3-x-1-1-1-|-3-3-3-3-x-1-1-1-|-3-3-3-3-x-1-1-1-|


post-chorus:

|-----------------|-----------------|-----------------|-----------------|
|-----------------|-----------------|-----------------|-----------------|
|-----------------|-----------------|-----------------|-----------------|
|-7-7-7-7-7-7-7-7-|-7-7-7-7-7-7-7-7-|-7-7-7-7-7-7-7-7-|-7-7-7-7-7-7-7-7-|
|-7-7-7-7-7-7-7-7-|-8-8-8-8-8-8-8-8-|-9-9-9-9-9-9-9-9-|-8-8-8-8-8-8-8-8-|
|-5-5-5-5-5-5-5-5-|-5-5-5-5-5-5-5-5-|-5-5-5-5-5-5-5-5-|-5-5-5-5-5-5-5-5-|


verse3:

|-----------------|-----------------|-----------------|-----------------|
|-----------------|-----------------|-----------------|-----------------|
|-----------------|-----------------|-----------------|-----------------|(2x)
|-7-7-7-7-7-7-7-7-|-7-7-7-7-7-7-7-7-|-7-7-7-7-7-7-7-7-|-7-7-7-7-7-7-7-7-|
|-7-7-7-7-7-7-7-7-|-8-8-8-8-8-8-8-8-|-9-9-9-9-9-9-9-9-|-8-8-8-8-8-8-8-8-|
|-5-5-5-5-5-5-5-5-|-5-5-5-5-5-5-5-5-|-5-5-5-5-5-5-5-5-|-5-5-5-5-5-5-5-5-|

|-----------------|-----------------|-----------------|
|-----------------|-----------------|-----------------|
|-----------------|-----------------|-----------------|
|-7-7-7-7-7-7-7-7-|-7-7-7-7-7-7-7-7-|-7-7-7-7-7-7-7-7-|
|-7-7-7-7-7-7-7-7-|-8-8-8-8-8-8-8-8-|-9-9-9-9-9-9-9-9-|
|-5-5-5-5-5-5-5-5-|-5-5-5-5-5-5-5-5-|-7-7-7-7-7-7-7-7-|

|-----------------|-----------------|
|-----------------|-----------------|
|-----------------|-----------------|
|-3-3-3-3-3-3-3-3-|-5-5-5-5-5-5-5-5-|
|-3-3-3-3-3-3-3-3-|-5-5-5-5-5-5-5-5-|
|-1-1-1-1-1-1-1-1-|-3-3-3-3-3-3-3-3-|


(repeat chorus)

bridge:

|-------------------|-------------------|-------------------|-------------------|
|-------------------|-------------------|-------------------|-------------------|
|-------------------|-------------------|-------------------|-------------------|
|-5h7-7-55h7-7-55h7-|-5h7-7-55h7-7-55h7-|-5h7-7-55h7-7-55h7-|-5h7-7-55h7-7-55h7-|
|-5h7-7-55h7-7-55h7-|-5h7-7-55h7-7-55h7-|-5h7-7-55h7-7-55h7-|-5h7-7-55h7-7-55h7-|
|-5-----55-----55---|-5-----55-----55---|-5-----55-----55---|-5-----55-----55---|

|-------------|-------------|-------------|-------------|
|-------------|-------------|-------------|-------------|
|-------------|-------------|-------------|-------------|
|-5-5-5-5-5-5-|-7-7-7-7-7-7-|-3-3-3-3-3-3-|-5-5-5-5-5-5-|
|-5-5-5-5-5-5-|-7-7-7-7-7-7-|-3-3-3-3-3-3-|-5-5-5-5-5-5-|
|-3-3-3-3-3-3-|-5-5-5-5-5-5-|-1-1-1-1-1-1-|-3-3-3-3-3-3-|

|-------------|-------------|-------------|
|-------------|-------------|-------------|
|-------------|-------------|-------------|
|-5-5-5-5-5-5-|-7-7-7-7-7-7-|-3-3-3-3-3-3-|
|-5-5-5-5-5-5-|-7-7-7-7-7-7-|-3-3-3-3-3-3-|
|-3-3-3-3-3-3-|-5-5-5-5-5-5-|-1-1-1-1-1-1-|

|-------------|-------------|-------------|
|-------------|-------------|-------------|
|-------------|-------------|-------------|
|-5-5-5-x-3-3-|-5-5-5-x-3-3-|-5-5-5-x-3-3-|
|-5-5-5-x-3-3-|-5-5-5-x-3-3-|-5-5-5-x-3-3-|
|-3-3-3-x-1-1-|-3-3-3-x-1-1-|-3-3-3-x-1-1-|


|-----------------|-----------------|-----------------|-----------------|
|-----------------|-----------------|-----------------|-----------------|
|-----------------|-----------------|-----------------|-----------------|
|-7-7-7-7-7-7-7-7-|-7-7-7-7-7-7-7-7-|-7-7-7-7-7-7-7-7-|-7-7-7-7-7-7-7-7-|
|-7-7-7-7-7-7-7-7-|-8-8-8-8-8-8-8-8-|-9-9-9-9-9-9-9-9-|-8-8-8-8-8-8-8-8-|
|-5-5-5-5-5-5-5-5-|-5-5-5-5-5-5-5-5-|-5-5-5-5-5-5-5-5-|-5-5-5-5-5-5-5-5-|

|-----------------|
|-----------------|
|-----------------|
|-7~~-------------|
|-7~~-----(pause)-|
|-5~~-------------|


verse4:


|-----------------|-----------------|-----------------|-----------------|
|-----------------|-----------------|-----------------|-----------------|
|-----------------|-----------------|-----------------|-----------------|
|-7-7-7-7-7-7-7-7-|-7-7-7-7-7-7-7-7-|-7-7-7-7-7-7-7-7-|-7-7-7-7-7-7-7-7-|
|-7-7-7-7-7-7-7-7-|-8-8-8-8-8-8-8-8-|-9-9-9-9-9-9-9-9-|-8-8-8-8-8-8-8-8-|
|-5-5-5-5-5-5-5-5-|-5-5-5-5-5-5-5-5-|-5-5-5-5-5-5-5-5-|-5-5-5-5-5-5-5-5-|

|-----------------|-----------------|-----------------|
|-----------------|-----------------|-----------------|
|-----------------|-----------------|-----------------|
|-7-7-7-7-7-7-7-7-|-7-7-7-7-7-7-7-7-|-7-7-7-7-7-7-7-7-|
|-7-7-7-7-7-7-7-7-|-8-8-8-8-8-8-8-8-|-9-9-9-9-9-9-9-9-|
|-5-5-5-5-5-5-5-5-|-5-5-5-5-5-5-5-5-|-5-5-5-5-5-5-5-5-|

|-----------------|-----------------|
|-----------------|-----------------|
|-----------------|-----------------|
|-3-3-3-3-3-3-3-3-|-5-5-5-5-5-5-5-5-|
|-3-3-3-3-3-3-3-3-|-5-5-5-5-5-5-5-5-|
|-1-1-1-1-1-1-1-1-|-3-3-3-3-3-3-3-3-|


(repeat chorus)

teejay v.   BOUNCE..!!
            
Submit corrections

comments powered by Disqus
↑ Back to top | Bamboo Tabs for Mr Clay. Lyrics for acoustic guitar and electric guitar. 1 Tablatures and chords are parodies/interpretations of the original songs. You may use it for private study, scholarship, research or language learning purposes only