» » »

Little Child Tabs (ver.1)

Artists:  A B C D E F G H I J K L M N O P Q R S T U V W X Y Z # 

Little Child Tabs (ver.1)

Bamboo
Rating:
5/5 (1 vote)

Hard to play? Try these video lessons and learn fast.
                

Dude try nyo nlang 2!!! Ok din …comment nyo nlang aq!!!pg my mali!!! tnx


Standard tuning (EADGBe)
INTRO: 

E|--------0-----------------------------0----|
B|----------3----------0h1----------1--------|
G|------0-----0------0----0-------0---0------|
D|-----------------2--------2----------------|
A|---------------0---------------------------|
E|---3--------------------------1------------|


E|--------0----------------------------------|
B|----------3----------0h1----------1--------|
G|------0-----0------0----0-------0----------|
D|-----------------2--------2----------------|
A|---------------0---------------------------|
E|---3--------------------------1------------|

Verse:
G – Am – f 

Chorus:
Guitar 1: 
G – Am - f
Guitar2:
E|--------0-----------------------------0----|
B|----------3----------0h1----------1--------|
G|------0-----0------0----0-------0---0------|
D|-----------------2--------2----------------|
A|---------------0---------------------------|
E|---3--------------------------1------------|

Play nyo nlang yung music.paulit paulit lng yan…hehe
“mangalam mt.”
………………………………………………………………………………………………..\!!!!!
            
Hard to play? Try these video lessons and learn fast. | Correct




comments powered by Disqus
↑ Back to top | Tablatures and chords are parodies/interpretations of the original songs. You may use it for private study, scholarship, research or language learning purposes only