>
 >
Kailan 2

Kailan 2 Guitar Tabs

Bamboo - Kailan 2 chords, tabs, tablatures, lyrics

Guitar lessons | Add/correct | Request | Top 50 tabs Artists:  A B C D E F G H I J K L M N O P Q R S T U V W X Y Z 0-9

Kailan 2 Guitar Tabs – Bamboo

CD, Sheet music, Poster

Do you like Kailan 2? Share with your friends now
Bass TabsChordsChords v2Chords v3TabsTabs v2Tabs v3Tabs v4Ukulele


Tuning: STANDARD (EADGBe)


Intro:

e----------------------------------------------------------------|
B----------------------------------------------------------------|
G---------9--9--9----------7--7--7-------------------------------|
D--7--7---9--9--9---5--5---7--7--7-------------------------------|
A--7--7---7--7--7---5--5---5--5--5-------------------------------|
E--5--5-------------3--3-----------------------------------------| 2x

e----------------------------------------------------------------|
B----------------------------------------------------------------|
G--------------------------7--7--7-------------------------------|
D--7--7---2--2--2---5--5---7--7--7-------------------------------|
A--7--7---2--2--2---5--5---5--5--5-------------------------------|
E--5--5---0--0--0---3--3-----------------------------------------| 2x


Verse 1:

e----------------------------------------------------------------|
B-----7------5------7------5-------------------------------------|
G--7~-7---5~-5---7~-7---5~-5-------------------------------------|
D--7~-7---5~-5---7~-7---5~-5-------------------------------------|
A--5~-----3~-----5~-----3~---------------------------------------|
E----------------------------------------------------------------| 2x


Refrain 1:

e----------------------------------------------------------------|
B----------------------------------------------------------------|
G--7~---5~---7~---5~---7-----------------------------------------|
D--7~---5~---7~---5~---7-----------------------------------------|
A--5~---3~---5~---3~---5-----------------------------------------|
E----------------------------------------------------------------|


Chorus 1:

e----------------------------------------------------------------|
B----------------------------------------------------------------|
G---------9--9--9----------7--7--7-------------------------------|
D--7--7---9--9--9---5--5---7--7--7-------------------------------|
A--7--7---7--7--7---5--5---5--5--5-------------------------------|
E--5--5-------------3--3-----------------------------------------| 4x


1st Solo:

e----------------------------------------------------------------|
B----------------------------------------------------------------|
G--6-------------------------------------------------------------|
D----7~-9-5------------------------------------------------------|
A-----------7h5-3~-----------------------------------------------|
E----------------------------------------------------------------|

e-----------------------10---------------------------------------|
B--------------------------9-------------------------------------|
G--6--------------11-12------------------------------------------|
D----7~-7/9-10-12------------------------------------------------|
A----------------------------------------------------------------|
E----------------------------------------------------------------|


Verse 2:

e----------------------------------------------------------------|
B-----7------5------7------5-------------------------------------|
G--7~-7---5~-5---7~-7---5~-5-------------------------------------|
D--7~-7---5~-5---7~-7---5~-5-------------------------------------|
A--5~-----3~-----5~-----3~---------------------------------------|
E----------------------------------------------------------------| 2x


Refrain 2:

e----------------------------------------------------------------|
B----------------------------------------------------------------|
G--7~---5~---7~---5~---7-----------------------------------------|
D--7~---5~---7~---5~---7-----------------------------------------|
A--5~---3~---5~---3~---5-----------------------------------------|
E----------------------------------------------------------------|


Chorus 2:

e----------------------------------------------------------------|
B----------------------------------------------------------------|
G---------9--9--9----------7--7--7-------------------------------|
D--7--7---9--9--9---5--5---7--7--7-------------------------------|
A--7--7---7--7--7---5--5---5--5--5-------------------------------|
E--5--5-------------3--3-----------------------------------------| 4x


2nd Solo: (For Rhythm Guitar)

e----------------------------------------------------------------|
B----------------------------------------------------------------|
G-----------------9-9--9-9--9-9--7-7--7-7--7-7--7-7--7-7--7-7----|
D--7-7--7-7--7-7--9-9--9-9--9-9--7-7--7-7--7-7--7-7--7-7--7-7----|
A--7-7--7-7--7-7--7-7--7-7--7-7--5-5--5-5--5-5--5-5--5-5--5-5----|
E--5-5--5-5--5-5-------------------------------------------------| 2x

e----------------------------------------------------------------|
B----------------------------------------------------------------|
G-----------------9-9--9-9--9-9--7-6-5-4~--7~--9~----------------|
D--7-7--7-7--7-7--9-9--9-9--9-9--7-6-5-4~--7~--9~----------------|
A--7-7--7-7--7-7--7-7--7-7--7-7--5-4-3-2~--5~--7~----------------|
E--5-5--5-5--5-5-------------------------------------------------|


Bridge: (For Rhythm Guitar)
        (Note: Play this part with low volume)

e----------------------------------------------------------------|
B----------------------------------------------------------------|
G--------------------------7--7--7-------------------------------|
D--7--7---2--2--2---5--5---7--7--7-------------------------------|
A--7--7---2--2--2---5--5---5--5--5-------------------------------|
E--5--5---0--0--0---3--3-----------------------------------------| 2x


Chorus 3:

e----------------------------------------------------------------|
B----------------------------------------------------------------|
G---------9--9--9----------7--7--7-------------------------------|
D--7--7---9--9--9---5--5---7--7--7-------------------------------|
A--7--7---7--7--7---5--5---5--5--5-------------------------------|
E--5--5-------------3--3-----------------------------------------| 7x

e----------------------------------------------------------------|
B----------------------------------------------------------------|
G---------9--9--9----------7~--7--7--7--7------------------------|
D--7--7---9--9--9---5--5---7~--7--7--5--5------------------------|
A--7--7---7--7--7---5--5---5~--5--5--5--5------------------------|
E--5--5-------------3--3-----------------------------------------|


Outro: (Pause for a while)

e----------------------------------------------------------------|
B----------------------------------------------------------------|
G----------------------------------------------------------------|
D--7--7--7--7--7--7--7--7--7--7--7--7----------------------------|
A--7--7--7--7--7--7--7--7--7--7--7--7----------------------------|
E--5--5--5--5--5--5--5--5--5--5--5--5----------------------------|


| /  slide up
| \  slide down
| h  hammer-on
| p  pull-off
| ~  vibrato
| +  harmonic
| x  Mute note


ReBiRtH Band:
Vocalist- Christian Jan S. Ramirez
Bassist- Richwin Anthony F. Hernandez
Drummer- Vince Gerard O. Soguilon
Guitarist- Anthony Ace A. Sabado


BAMBOO ROCKS!!! ^_^
-'rebirth_bassist'





Comments


Popular Bamboo tabs & chords
Masaya 2 Bass Tabs
Blown Away 1 Chords
Last Days On A Cruise Ship Chords
Take Me Down Chords
Hallelujah Intro Tabs
Hudas Tabs
Hudas 2 Tabs
Tatsulok 1 Tabs
You Tabs
Broken Promises Ukulele


Song lyrics



↑ Back to top | Tablatures and chords are parodies/interpretations of the original songs. You may use it for private study, scholarship, research or language learning purposes only
© 2014 AZChords.com Contact us | Privacy policy | DMCA | Add/correct tabs | Request tabs | Top 50 tabs