>
 >
I Dont Wanna Wait In Vain For Your Love

I Dont Wanna Wait In Vain For Your Love Bass Tabs

Bamboo - I Dont Wanna Wait In Vain For Your Love chords, tabs, tablatures, lyrics

Guitar lessons | Add/correct | Request | Top 50 tabs Artists:  A B C D E F G H I J K L M N O P Q R S T U V W X Y Z 0-9

I Dont Wanna Wait In Vain For Your Love Bass Tabs – Bamboo

CD, Sheet music, Poster

Do you like I Dont Wanna Wait In Vain For Your Love? Share with your friends now
Bass Tabs


/ = slide up
\ = slide down
h = hammer on
p = pull-off
x = dead string



Intro:

    AM7      DM7      AM7  DM7	

G|-------------------|----------------------|
D|----7-6------------|---7------------------|
A|---------7-5-----5-|-----5-------12-------|
E|--5----------------|5---------------10\---|


Verse 1:

    AM7        DM7

G|-----------------------|
D|-----------------------|
A|-------------5--5-x5-7-|
E|--5--5-x5--7-----------| REPEAT 4 TIMES!!

    AM7            DM7        AM7            DM7      

G|--------------------------|------------------------|
D|--------------------------|------------------------|
A|-----------------5-5-x5-7-|---------x-----5-5-x5-7-|
E|--5--5-x5--5-5h7----------|-5--5-x5---5h7----------|


    AM7          DM7        AM7          DM7
G|------------------------|-----------------------------------|
D|------------------------|--------------------7-9/11-9-7-----|
A|---------5-----5-5-x5-7-|--------5-----5-7h9------------9-7-|
E|--5-5-x5---5h7----------|-5-5-x5---5h7----------------------|


Chorus:

    AM7           DM7

G|---------------------------|
D|---------------------------|
A|----------5-----5--5-x5--7-|
E|--5--5-x5---5h7------------| REPEAT 2 TIMES!!


    AM7      DM7       AM7 DM7

G|-------------------|-----------------------|
D|----7-6------------|---7-------------------|
A|--------7-x5--5-x5-|-----5-----------------|
E|--5----------------|-5-------------3//15\\-|


Guitar Solo 1:

    GM7           CM7               GM7          CM7

G|--------------------------------|----------------------4h5-4---|
D|--------------------------5-----|--------------------5-------5-|
A|----------x-----3--3--5h7---7/--|----------5-0-3--3------------|
E|--3--3-x3---3h5-----------------|-3--3-x3----------------------|


    GM7           CM7                 GM7            CM7

G|----------------------------------|--------------------5--------|
D|--------------------------5-7-7-7-|-5----------------5---5------|
A|----------3-----3--3--5/7---------|----5-3-2-------3--------3/2-|
E|--3--3-x3---3h5-------------------|----------x-3h5--------------|


Verse 2:

    GM7        CM7          GM7           CM7

G|------------------------|-------------------------5---------|
D|------------------------|---------------------5h7---7---7---|
A|-------------3--3-x3--5-|---------3-----3--3----------7---7-|
E|--3--3-x3--5------------|-3--3-x3---3h5---------------------|


    GM7            CM7              GM7           CM7

G|-------------------------------|---------------------/5-4---------|
D|--5----------------------------|-------------------5------5-3-3---|
A|-------------2---3--3-x3--x5---|----------3-----3---------------5-|
E|-----3-x3--3---3-------------x-|--3--3-x3---3h5-------------------|


    GM7           CM7          GM7           CM7

G|---------------------------|---------------------------------|
D|---------------------------|------------------------5--7/9\7-|
A|----------3-----3--3-x3--5-|---------5-----3--3-5/7----------|
E|--3--3-x3---3h5------------|-3--3-x3---3h5-------------------|


    GM7        CM7           GM7      CM7

G|-------------------------|-----------------------------------|
D|--5--4-------------------|-----------------------------------|
A|-------5-5-3-3--3--------|----------5-0-2-3--3--x3-3-3--3-3-3|
E|-------------------0-1-2-|-3--3-x3---------------------------|


    GM7      CM7          DM7

G|-------------5----------7-----------|
D|----5-4-----------------7-----------|
A|---------5-3---3-4-5----------------|
E|--3---------------------------12\---|


Chorus 2:


    AM7           DM7                 AM7           DM7

G|---------------------------------|-----------------------------6h7p6-----|
D|-------------------------7-x-9-9-|--7------------------------7-------7---|
A|----------5-----5--5-7/9---------|-------------3-4-5-5-x5-5------------7-|
E|--5--5-x5---5-7------------------|-----5-x5--5---------------------------|


    AM7        DM7    AM7 DM7

G|------------------|---------7----------------------|
D|----7-6-----------|--------------------------------|
A|--------7-5--5-x5-|---7-5-------5-5--------/12\----|
E|--5---------------|-5---------3-----1-2-3----------|


'Cause summer is here:


    EM7              DM7                   GM7                  CM7

G|-----------------|-----6-6h7-6---------|--------------------|-------4-4h5-4-------|
D|-----------------|---7---------7-5-5-7-|------------4h5-4---|-----5---------5-3-5-|
A|--7--7-x7----7---|-5-------------------|-----x2-3-5-------5-|-3-3-----------------|
E|-----------7---7-|---------------------|-3-3----------------|---------------------|


    EM7              DM7                 GM7                  CM7

G|------9-9/11-8---|-------6h7-6-------|--------------------|--------------------------|
D|----9----------9-|-----7-------7-5-7-|------------4h5-4---|--------4-5-5-5-5-5-5-4---|
A|--7--------------|-5-5---------------|---2-x3-5-5-------5-|-3-3--5-----------------5-|
E|-----------------|-------------------|-3------------------|--------------------------|


Bridge:


    GM7        CM7

G|-----------------------|
D|-----------------------|
A|----------5--3--3-x3-5-|
E|--3--3-x3--------------|  REPEAT 2 TIMES


    GM7     CM7

G|--4-------7--------|
D|------4/-------9\--|
A|------5/-----------|
E|--3-------8--------|


    GM7        CM7

G|------------------------|
D|------------------------|
A|---------5-0-3----------|
E|--3--3-3--------3//15\\-|


Guitar Solo 2:


    GM7            CM7               GM7         CM7    

G|---------------------------------|-----------------------------|
D|---------------------------5---7-|-----------------------------|
A|-------------2---3--3--5/7-------|------------2---3--3-2-3-3h5-|
E|--3--3-x3--3---3------------x----|-3--3-x3--3---3--------------|


    GM7     CM7               GM7                CM7

G|--------------------------|------------------------5-----------------|
D|--5-----------------------|-------/5-4---------------5-3-4-5---------|
A|----5-3-2-3--3---3----2---|-----5------5-3-4-5-3-3-----------2-3-2---|
E|---------------3----5---5-|-3-3------------------------------------5-|


    GM7              CM7                  GM7              CM7

G|--------------------------------------|-----------------------------------|
D|--------------------------------------|---------------------------5-------|
A|---------------2---3-3--3-x3-3----2---|--------------5-7-3-3--5/7---7-0-3-|
E|--3-3--3-x3--3---3--------------5---5-|-3-3-3--5-5/7----------------------|


    GM7             CM7                     GM7    

G|----------------------4h5p4-------------|----------------------------------|
D|----------------------------5---3-3-4-4-|-5-5-5-5-4-4-4-4-4-4--------------|
A|------------3-----3-3---------5---------|---------------------4h5-5--4h5-5-|
E|--3-3--3-x3---3-5-----------------------|----------------------------------|


    CM7

G|--------4-5-6-4---4-----------------------|
D|------5---------5---5-4-3-----------------|
A|--3-3----------------------5--------------|
E|------------------------------3-(3)/15\---|


    GM7    CM7        GM7       CM7    

G|------------------|---------------------[5]N.H.-----------|
D|------------------|---------------------------------------|
A|-------2-3-3-x3-2-|---------2-3---------------------------|
E|--3-x3------------|-3--3-x3-------------------------------|

  
    GM7         CM7               GM7        CM7

G|-----------------------------|---------------------4h5-4-----|
D|-----------------------------|-------------------5-------5---|
A|-----------------------------|----------2-x3-2-3-----------5-|
E|--3--3-x3--/--8--8-x8---11\--|--3--3-x3----------------------|


    GM7          CM7           GM7        CM7

G|---------------------------|-----------------4h5-4------------|
D|-------------------------5-|---------------5-------5----3p2---|
A|---------------3--3-x5/7---|---------5-x3------------5------3-|
E|--3--3-x3/7-5--------------|-3--3-x3--------------------------|


    GM7         CM7         GM7        CM7

G|------------------------|---------------4----|
D|------------------------|--------------------|
A|----------5-0-3--3-x3-5-|----------5-x3----5-|
E|--3--3-x3---------------|-x3--3-x3-----------|


Outro:


    GM7  CM7   GM7   CM7    GM7      CM7       GM7 CM7

G|----------|-------------|------------------|-------------------------------|
D|----------|-------------|---5-x4-----------|---5---------------------------|
A|-------3--|-/10-9--3--3-|-------5-x3--3-x3-|-----3--(3)/15\----------------|
E|--3--5----|-------------|-3----------------|-3-----------------------------|





Comments


Popular Bamboo tabs & chords
Noypi Bass Tabs
Noypi 6 Bass Tabs
Blown Away 1 Chords
Masaya Chords
50 Ways To Leave Your Lover 2 Tabs
Mr Clay (Intro) Tabs
By Mosquito Bytes Ukulele
Dinner At 6 Ukulele
Fu Ukulele
Kailan Ukulele


Song lyrics



↑ Back to top | Tablatures and chords are parodies/interpretations of the original songs. You may use it for private study, scholarship, research or language learning purposes only
© 2014 AZChords.com Contact us | Privacy policy | DMCA | Add/correct tabs | Request tabs | Top 50 tabs