» » »

Hudas Tabs (ver.4)

Artists:  A B C D E F G H I J K L M N O P Q R S T U V W X Y Z # 

Hudas Tabs (ver.4)

Bamboo
Rating:
0/5 (0 votes)
Tabs too difficult? Try these video lessons and learn fast.
                hello guys this is my another "tutorial tab" hehehehe...this is for the beginners and
aspiring guitarist's i hope this maybe a big help to all of you there....keep rocking!!!!
support opm!!!!!

hi din pala sa mga taga parara tigbauan iloilo...lalo na sa grupong baroto ni tay mingo
hehehehe....esp: mikel,bukaw,baldo,toto,rackbert,biboy,joker,ding-dong at tsaka sa mahal
ko c aiza hehehehe......

hope you like and enjoy.....peace!!!!!!!!!!!!!
Intro: Em-C 2x

Verse 1:
Em                C
Ba't sila'y nag-iinumang masaya
Am        Bm       C
Bakit sa lupa magulo
Em                 C
Ba't sila'y nagtatawanang malakas
Am     Bm           C
Tinatawanan lang tayo

Refrain 1:
Cm                 G
‘di kaya't isang tropa lang sila
     Am              Bm              C
Ang demonyo, si San Pedro at ang Diyos

Chorus:
G      D             Am-C-G-D-Am-C
Tinatawanan lang ni Hudas
G      D             Am-C
Tinatawanan lang ni Hudas
       G-D      Am     C
Ako't ikaw, tayong lahat

Interlude:
hoo... Hoo...Hooo...Hoooo
e|-------------------------------------------------------|
b|-------------------------------------------------------|
g|--999--12--14---16.16.16-------------------------------|
d|-------------------------------------------------------| 2x
a|--777--10--12---14.14.14-------------------------------|
E|-------------------------------------------------------|
    just listen to the music for the timing... :)



Verse 2: (same chords as verse 1:
Balita ko'y may nag-away sa inyo
Dahil ba sa penoy at balot?
Nag-debate, nag-talo kung sinong tama't totoo
Pinag-awayan si Jawo


Refrain 2: (same chords as refrain 1)
O Sana ay mamulat ang matang bulag
Nag-iisa lang naman ang Diyos



Repeat Chorus:



Adlib:
      Em-C-Am-Bm-C 2x
e|-----------------------------------------------|
b|-----------------------------------------------|
g|-999--12-14-16.16.16----17-16\17/16--14--12----|
d|-----------------------------------------------| 2x
a|-777--10-12-14.14.14----15-14\15/14--12--10----|
E|-----------------------------------------------|

e|----------------------------|
b|----------------------------|
g|--16\17/16---14---12--------|
d|----------------------------|
a|--14\15/14---12---10--------|
E|----------------------------|
    just listen very well to get the proper timing....  :)



Repeat Refrain 2:

Coda:
G      D             Am  C
Tinatawanan lang ni Hudas
G      D             Am  C
Tinatawanan lang ni Hudas
G      D             Am  C
Tinatagayan lang ni Hudas
G      D             Am(pause)
Si satanas at ating Diyos Ama
            
Tabs too difficult? Try these video lessons and learn fast.


comments powered by Disqus
↑ Back to top | Tablatures and chords are parodies/interpretations of the original songs. You may use it for private study, scholarship, research or language learning purposes only