» » »

Bamboo, Hudas Tabs (ver.3)

Artists:  A B C D E F G H I J K L M N O P Q R S T U V W X Y Z # 

Hudas Tabs (ver.3)

Bamboo Tabs
Rating:
0/5 (0 votes)
Hudas lessons Tabs too difficult? Try these video lessons and learn fast
                HUDAS
Bamboo

wazzup guys... ito naman ang gawa kong tabs Hudas by bamboo
sana magustuhan niyo,, ang ganda nitong song... enjoy...
paki rank nalang po.. thanks

...intro(2x)
E------0-0-0-0-0-0---0-0-0-0-0-0-0-0------0-0-0-0-0-0---0-0-0-0-0-0-0-0----|
B------3-3-3-3-3-3---3-3-3-3-3-3-3-3------3-3-3-3-3-3---3-3-3-3-3-3-3-3----|
G---0--0-0-0-0-0-0---0-0-0-0-0-0-0-0---0--0-0-0-0-0-0---0-0-0-0-0-0-0-0----|
D---2--2-2-2-2-2-2---2-2-2-2-2-2-2-2---2--2-2-2-2-2-2---2-2-2-2-2-2-2-2----|
A---2--2-2-2-2-2-2---3-3-3-3-3-3-3-3---2--2-2-2-2-2-2---3-3-3-3-3-3-3-3----|
E--------------------------------------------------------------------------|

       Ba't sila'y... 
E------0-0-0-0-0-0---0-0-0-0-0-0-0-0------0-0-0-0-0-0---0-0-0-0-0-0-0-0----|
B------3-3-3-3-3-3---3-3-3-3-3-3-3-3------3-3-3-3-3-3---3-3-3-3-3-3-3-3----|
G---0--0-0-0-0-0-0---0-0-0-0-0-0-0-0---0--0-0-0-0-0-0---0-0-0-0-0-0-0-0----|
D---2--2-2-2-2-2-2---2-2-2-2-2-2-2-2---2--2-2-2-2-2-2---2-2-2-2-2-2-2-2----|
A---2--2-2-2-2-2-2---3-3-3-3-3-3-3-3---2--2-2-2-2-2-2---3-3-3-3-3-3-3-3----|
E--------------------------------------------------------------------------|
    Bakit sa lupa...
E---x------------------------------------------------------------|
B---x------------------------------------------------------------|
G---x------------------------------------------------------------|
D---7-7-7-7-7-7-7---9-9-9-9-9-9-9---10-10-10-10-10-10-10---------|
A---7-7-7-7-7-7-7---9-9-9-9-9-9-9---10-10-10-10-10-10-10---------|
E---5-5-5-5-5-5-5---7-7-7-7-7-7-7---8--8--8--8--8--8--8----------|

       Ba't sila'y natatawanang malakas 
E------0-0-0-0-0-0---0-0-0-0-0-0-0-0------0-0-0-0-0-0---0-0-0-0-0-0-0-0----|
B------3-3-3-3-3-3---3-3-3-3-3-3-3-3------3-3-3-3-3-3---3-3-3-3-3-3-3-3----|
G---0--0-0-0-0-0-0---0-0-0-0-0-0-0-0---0--0-0-0-0-0-0---0-0-0-0-0-0-0-0----|
D---2--2-2-2-2-2-2---2-2-2-2-2-2-2-2---2--2-2-2-2-2-2---2-2-2-2-2-2-2-2----|
A---2--2-2-2-2-2-2---3-3-3-3-3-3-3-3---2--2-2-2-2-2-2---3-3-3-3-3-3-3-3----|
E--------------------------------------------------------------------------|
    Tinatawanan lang tayo..
E---x------------------------------------------------------------|
B---x------------------------------------------------------------|
G---x------------------------------------------------------------|
D---7-7-7-7-7-7-7---9-9-9-9-9-9-9---10-10-10-10-10-10-10---------|
A---7-7-7-7-7-7-7---9-9-9-9-9-9-9---10-10-10-10-10-10-10---------|
E---5-5-5-5-5-5-5---7-7-7-7-7-7-7---8--8--8--8--8--8--8----------|

     O di kaya'y isang tropa......
E------------------------------------------------------------------|
B------------------------------------------------------------------|
G--8-8-8-8-8-------------------------------------------------5-5-5-|
D--8-8-8-8-8---5-5-5-5-5-5---7-7-7-7-7-7-7---9-9-9-9-9-9-9---5-5-5-|
A--6-6-6-6-6---5-5-5-5-5-5---7-7-7-7-7-7-7---9-9-9-9-9-9-9---3-3-3-|
E--------------3-3-3-3-3-3---5-5-5-5-5-5-5---7-7-7-7-7-7-7---------|

   Tinatawan lng ni hudas...
E--(3)---(2)---(0)---(0)-----|
B--(3)---(3)---(1)---(1)-----|
G--(0)---(2)---(2)---(0)-----|
D--(0)---(0)---(2)---(2)-----|(4x)
A--(2)---(0)---(0)---(3)-----|
E--(3)-----------------------|

       OoooH..........
E------0-0-0-0-0-0---0-0-0-0-0-0-0-0------0-0-0-0-0-0---0-0-0-0-0-0-0-0----|
B------3-3-3-3-3-3---3-3-3-3-3-3-3-3------3-3-3-3-3-3---3-3-3-3-3-3-3-3----|
G---0--0-0-0-0-0-0---0-0-0-0-0-0-0-0---0--0-0-0-0-0-0---0-0-0-0-0-0-0-0----|
D---2--2-2-2-2-2-2---2-2-2-2-2-2-2-2---2--2-2-2-2-2-2---2-2-2-2-2-2-2-2----|
A---2--2-2-2-2-2-2---3-3-3-3-3-3-3-3---2--2-2-2-2-2-2---3-3-3-3-3-3-3-3----|
E--------------------------------------------------------------------------|

       Balita ko'y....
E------x--x-----x--x-----x--x-----x--x-------x--x-----x--x-----x--x-----x--x---|
B------x--x-----x--x-----x--x-----x--x----1--x--x--1--x--x--1--x--x--1--x--x---|
G---0--x--x--0--x--x--0--x--x--0--x--x----0--x--x--0--x--x--0--x--x--0--x--x---|
D---2--x--x--2--x--x--2--x--x--2--x--x----2--x--x--2--x--x--2--x--x--2--x--x---|
A---2--x--x--2--x--x--2--x--x--2--x--x----3--x--x--3--x--x--3--x--x--3--x--x---|
E------x--x-----x--x-----x--x-----x--x-------x--x-----x--x-----x--x-----x--x---|

    Dahil ba sa pinoy at balot...
E---x------------------------------------------------------------|
B---x------------------------------------------------------------|
G---x------------------------------------------------------------|
D---7-7-7-7-7-7-7---9-9-9-9-9-9-9---10-10-10-10-10-10-10---------|
A---7-7-7-7-7-7-7---9-9-9-9-9-9-9---10-10-10-10-10-10-10---------|
E---5-5-5-5-5-5-5---7-7-7-7-7-7-7---8--8--8--8--8--8--8----------|

       Nag debate nag talo....
E------x--x-----x--x-----x--x-----x--x-------x--x-----x--x-----x--x-----x--x---|
B------x--x-----x--x-----x--x-----x--x----1--x--x--1--x--x--1--x--x--1--x--x---|
G---0--x--x--0--x--x--0--x--x--0--x--x----0--x--x--0--x--x--0--x--x--0--x--x---|
D---2--x--x--2--x--x--2--x--x--2--x--x----2--x--x--2--x--x--2--x--x--2--x--x---|
A---2--x--x--2--x--x--2--x--x--2--x--x----3--x--x--3--x--x--3--x--x--3--x--x---|
E------x--x-----x--x-----x--x-----x--x-------x--x-----x--x-----x--x-----x--x---|

    Pinag awayan...
E---x------------------------------------------------------------|
B---x------------------------------------------------------------|
G---x------------------------------------------------------------|
D---7-7-7-7-7-7-7---9-9-9-9-9-9-9---10-10-10-10-10-10-10---------|
A---7-7-7-7-7-7-7---9-9-9-9-9-9-9---10-10-10-10-10-10-10---------|
E---5-5-5-5-5-5-5---7-7-7-7-7-7-7---8--8--8--8--8--8--8----------|

    O sana ay mamulat....
E------------------------------------------------------------------|
B------------------------------------------------------------------|
G--8-8-8-8-8-------------------------------------------------5-5-5-|
D--8-8-8-8-8---5-5-5-5-5-5---7-7-7-7-7-7-7---9-9-9-9-9-9-9---5-5-5-|
A--6-6-6-6-6---5-5-5-5-5-5---7-7-7-7-7-7-7---9-9-9-9-9-9-9---3-3-3-|
E--------------3-3-3-3-3-3---5-5-5-5-5-5-5---7-7-7-7-7-7-7---------|


   Tinatawan lng ni hudas...
E--(3)---(2)---(0)---(0)-----|
B--(3)---(3)---(1)---(1)-----|
G--(0)---(2)---(2)---(0)-----|
D--(0)---(0)---(2)---(2)-----|(4x)
A--(2)---(0)---(0)---(3)-----|
E--(3)-----------------------|


Adlib....
E------------------------------------------------------------------------------------|
B------------------------------------------------------------------------------------|
G------------------------------------------------------------------------------------|
D---------------7-7s(9~)---9-9-9h10--10-10-10-9---9-9-9h10-9----------10-9-----------|
A--\--(7~)--10---------------------------------------------12--10--------10--9-------|
E------------------------------------------------------------------------------------|

E----------------------------------------------------------------------------------------------|
B----------------------------------------------------------------------------------------------|
G----------------------------------------------------------------------------------------------|
D------------7-7s9---9-9-9h10--10-10-10-9---9-9-10-9----------10-9-----------10-9--------------|
A--(7~)--10---------------------------------------------12--10--------12-10--------11--10--9^--|
E----------------------------------------------------------------------------------------------|

   O sana ay mamulat....
E------------------------------------------------------------------|
B------------------------------------------------------------------|
G--8-8-8-8-8-------------------------------------------------5-5-5-|
D--8-8-8-8-8---5-5-5-5-5-5---7-7-7-7-7-7-7---9-9-9-9-9-9-9---5-5-5-|
A--6-6-6-6-6---5-5-5-5-5-5---7-7-7-7-7-7-7---9-9-9-9-9-9-9---3-3-3-|
E--------------3-3-3-3-3-3---5-5-5-5-5-5-5---7-7-7-7-7-7-7---------|


   Tinatawan lng ni hudas...           Si satanas at ating diyos ama... 
E--(3)---(2)---(0)---(0)-----|      E--(3)---(2)---(0)-------|
B--(3)---(3)---(1)---(1)-----|      B--(3)---(3)---(1)-------|
G--(0)---(2)---(2)---(0)-----|      G--(0)---(2)---(0)-------|
D--(0)---(0)---(2)---(2)-----|(3x)  D--(0)---(0)---(2)-------|
A--(2)---(0)---(0)---(3)-----|      A--(2)---(0)---(3)-------|
E--(3)-----------------------|      E--(3)-------------------|  ...end...


Legend:
	x    - dead string
        ()   - let ring
	(~)  - vibrato
	\    - slide down
        s    - slide
	h    - hummer on
	^    - bend 


cellphone # 09202555952
            

comments powered by Disqus
↑ Back to top | Bamboo Tabs for Hudas. Lyrics for acoustic guitar and electric guitar. Tablatures and chords are parodies/interpretations of the original songs. You may use it for private study, scholarship, research or language learning purposes only