» » »

Bamboo, Hudas Tabs (ver.2)

Artists:  A B C D E F G H I J K L M N O P Q R S T U V W X Y Z # 

Hudas Tabs (ver.2)

Bamboo Tabs
 Rating:
4.5/5 (8 votes)
Hudas lessons Tabs too difficult? Try these video lessons and learn fast
                hudas- bamboo tabs
  anawnsment:naghahanap kami  ng  dramer at bokal-lista ages: (15-18)
             loc. p'que-las piñas-cavite

PANIMULA:                                                     \
     Em   -    C                                               \
b|---0--0-0------1---1-------|                                  |
g|---0--0-0------0---0-------|                                  | 
d|--2-2--2------2--2---2-----|  (2x)                            |
a|--2-2--2------3--3---3-----|                                  |
E|---------------------------|                                  |  .....        
                                                                | .......
versIKULO                                                       | ..   ...       
b|---0--0--------1-1---------------------1---3-----1----|       |     ...  
g|---0--0--------0-0--0-0-0-0-0-0-0-0----2---2-----0----| 	|    ..      
d|--2--2--2-----2-2---2-2-2-2-2-2-2-2----2---x-----2----|(2x)	|  ... 
a|--2--2--2-----3-3---3-3-3-3-3-3-3-3----0---2-----3----|	| ........ x
E|------------------------------------------------------|	| ........     x
								|
pre-chorO							|
b|-3--3---1--3---1----						|
g|-0--0---2--2---0----						|
d|-2--x---2--x---2----						|
a|-3--2---0--2---3----						|
E|----3---------------						|		
							       / 		
chorO G-D-Am-C  (4X)POWER CHORD ONE STRUM EACH.               /

TULAY:
{(Em--C...--D-Em-D-C)2X}

ulitin ang pre-choro at choro...

hindi pa sigurado ang tulay "underconstruction" pa...

    L
     L---\_________________________
oxxxxI====__________________________>
     L---/                                                
    L
            
Submit corrections

comments powered by Disqus
↑ Back to top | Bamboo Tabs for Hudas. Lyrics for acoustic guitar and electric guitar. Tablatures and chords are parodies/interpretations of the original songs. You may use it for private study, scholarship, research or language learning purposes only