» » »

As The Music Plays The Band Tabs (ver.4)

Artists:  A B C D E F G H I J K L M N O P Q R S T U V W X Y Z # 

As The Music Plays The Band Tabs (ver.4)

Bamboo
Rating:
0/5 (0 votes)

Hard to play? Try these video lessons and learn fast.
                pakinggan nyo muna bago nyo banatan! :))
use wah pedal! angas ung tunog!! :))
chambahan nyo na lang ung up and low wah

verse
F             G
on the radio, DJ plays a song
F                G  
Thank you, sir, for the music
F
Listen night and day
G
To all the bands they play
F             G
Great music, great music
F pause            G  F
1 2 3 4 5 6 7 8 9 10, back in 1993
D                     D
I knew what I would be

chorus
                        F     G
As the music plays the band
                        F     G
And the songs play the music
                        F     G
As the music plays the band
                        F     D
And the songs play the music

e|-------------------------------------------------------------------------|
B|-------------------------------------------------------------------------|
G|-----5-4-5-4-5-4---4h5-4-5-4-5/7----5-4-5-4-5-4--------------------------|
D|--------------------------------------------------5h7p5------------------|
A|---------------------------------------------------------5h7p5-----------|
E|---------------------------------------------------------------8p7-------|

e|-------------------------------------------------------------------------|
B|--------------------------------------------------/7777-----/7777--------|
G|-----5-4-5-4-5-4---4h5-4-5-4-5/7----5-4-5-4-5-4--------------------------|
D|-------------------------------------------------------------------------|
A|-------------------------------------------------------------------------|
E|-------------------------------------------------------------------------|

Verse
same pattern above...

I wrote this song for all of you out there
With its catchy melody and simple harmonies
Let the music take control
Let the music take your soul
Everybody sing this song with me

chorus
                        F     G
As the music plays the band
                        F     G
And the songs play the music
                        F     G
As the music plays the band
                        F     D
And the songs play the music


F pause              G 
1 2 3 4 5 6 7 8 9 10, 

(follow the lyrics)

e|-------------------------------------------------------------------------|
B|-------------------------------------------------------------------------|
G|------------------5-------4-4--------5--------4-4------5------4----------|
D|---------------------------------------------------------------------5---|
A|-------------------------------------------------------------------------|
E|-------------------------------------------------------------------------|
     i     say      dum     dada      dum      dada      dum    da   dum

G

F pause               G  
1 2 3 4 5 6 7 8 9 10, 11 12

(follow the lyrics agen)

e|-------------------------------------------------------------------------|
B|-------------------------------------------------------------------------|
G|---5-------4-4--------5--------4-4------5------4-------------------------|
D|-----------------------------------------------------5-------------------|
A|-------------------------------------------------------------------------|
E|-------------------------------------------------------------------------|
     dum     dada      dum      dada      dum    da   dum


bass solo (ndi ko alam un.. ndi ako bassist.. hahah)

then..
e|-------------------------------------------------------------------------|
B|-------------------------------------------------------------------------|
G|-----5-4-5-4-5-4---4h5-4-5-4-5/7----5-4-5-4-5-4--------------------------|
D|--------------------------------------------------5h7p5------------------|
A|---------------------------------------------------------5h7p5-----------|
E|---------------------------------------------------------------8p7-------|

e|-------------------------------------------------------------------------|
B|--------------------------------------------------/7777-----/7777--------|
G|-----5-4-5-4-5-4---4h5-4-5-4-5/7----5-4-5-4-5-4--------------------------|
D|-------------------------------------------------------------------------|
A|-------------------------------------------------------------------------|
E|-------------------------------------------------------------------------|

tapos eto ulit

F pause              G 
1 2 3 4 5 6 7 8 9 10, 

(follow the lyrics)

e|-------------------------------------------------------------------------|
B|-------------------------------------------------------------------------|
G|------------------5-------4-4--------5--------4-4------5------4----------|
D|---------------------------------------------------------------------5---|
A|-------------------------------------------------------------------------|
E|-------------------------------------------------------------------------|
     i     say      dum     dada      dum      dada      dum    da   dum

G

F pause               G  
1 2 3 4 5 6 7 8 9 10, 11 12

(follow the lyrics agen)

e|-------------------------------------------------------------------------|
B|-------------------------------------------------------------------------|
G|---5-------4-4--------5--------4-4------5------4-------------------------|
D|-----------------------------------------------------5-------------------|
A|-------------------------------------------------------------------------|
E|-------------------------------------------------------------------------|
     dum     dada      dum      dada      dum    da   dum



D         D                          F
       yeah, as the music plays the band 
                        F     G
And the songs play the music
                        F     G
As the music plays the band
                        F     D
And the songs play the music

hope you like it!
            
Hard to play? Try these video lessons and learn fast. | Correct




comments powered by Disqus
↑ Back to top | Tablatures and chords are parodies/interpretations of the original songs. You may use it for private study, scholarship, research or language learning purposes only