>
 >
As The Music Plays The Band

As The Music Plays The Band Bass Tabs

Bamboo - As The Music Plays The Band chords, tabs, tablatures, lyrics

Guitar lessons | Add/correct | Request | Top 50 tabs Artists:  A B C D E F G H I J K L M N O P Q R S T U V W X Y Z 0-9

As The Music Plays The Band Bass Tabs – Bamboo

CD, Sheet music, Poster

Do you like As The Music Plays The Band? Share with your friends now
Bass TabsBass Tabs v2TabsTabs v2Tabs v3Tabs v4
Arist: Bamboo



/ = slide up
\ = slide down
h = hammer on
p = pull-off
x = dead string



Intro:

    F           G       F           G                F            G    

G|--------------------|----------------------------|-------------------|
D|-----10/12----9--10-|----10/12----9--10-10--12/7-|-7--10/12-----9-10-|
A|--8--------10-------|-8--------10----------------|----------10-------|
E|--------------------|----------------------------|-------------------|


   F          G

G|----------------------------|
D|---10/12----9--10-10-x-12\--|
A|-8-------10-----------------|
E|----------------------------|


Verse 1:

   F    G     F           G        F          G       F          G

G|-------------------------------|--------------------------------------|
D|---------------10/12----9--10\-|---10/12----9--10\----10/12----9--12/-|
A|---------------------10--------|-8-------10---------8-------10--------|
E|-1----3-///-13-----------------|--------------------------------------|


Pre-Chorus:

   F         G             F             D/F#            D

G|---------|-4-------------------------------------------------------------------|
D|---------|------------5-------------3------------------------------------------|
A|---------|----------------------------/9-9-9-9-9-9-9-9-------------------------|
E|-1-------|-3--3-x3--3----1-1--1--x1--------------------10-10-10-10-10-10-10-10-|


Chorus:

   F               G

G|-----------------------------------------|
D|-----------------------------------------|
A|-8-8-8-8-8-8-8-8-10-10-10-10-10-10-10-10-|
E|-----------------------------------------|

   F               D/F#

G|--------------------------------|
D|--------------------------------|
A|-8-8-8-8-8-8-8-8-9-9-9-9-9-9-10-|
E|--------------------------------|

   F               G

G|-----------------------------------------|
D|-----------------------------------------|
A|-8-8-8-8-8-8-8-8-10-10-10-10-10-10-10-10-|
E|-----------------------------------------|

  F                D/F#

G|--------------------------------|
D|--------------------------------|
A|-8-8-8-8-8-8-8-8-9-9-9-9-9-9-10-|
E|--------------------------------|


Interlude:

   F               G              F             G

G|------------------------------|------------------------------------|
D|-----------3------------------|-------------------------------5----|
A|-------------x--------2-2-3-3-|-----0-1-2-3-----2-2--3-3--5/7---7\-|
E|-1-1--1-x1-----1-3-3----------|-1-1---------1-3--------------------|


   F               G                F                G

G|---------------------4-4--------|-----------------------------------|
D|-----4h5-3-----3----------5-----|----------3---5--------------------|
A|-----------3------------------3-|------3/5---x---5-----------2-2--3-|
E|-1-1---------1---3-3--------5---|-1-1--------------3--3-5-5---------|


Verse 2:

   F         G         F         G

G|----------------------------------------------|
D|--------------------------------------5h6p5---|
A|--------------------------------------------5-|
E|-1--1-x1---3--3-x3---1--1-x1---3--3-x---------|

   F             G                 F            

G|---------------------------------------------|
D|---------3-----------------------------------|
A|-----------x----------------3----------------|
E|-1--1-x1-----x-3-3--3-x3--3---3--1-1--1-x1-1-|

    D/F#            D

G|------------------------------------------|
D|------------------------------------------|
A|-/9-9-9-9-9-9-9-9-------------------------|
E|------------------10-10-10-10-10-10-10-10-|


Chorus:  

   F               G

G|-----------------------------------------|
D|-----------------------------------------|
A|-8-8-8-8-8-8-8-8-10-10-10-10-10-10-10-10-|
E|-----------------------------------------|

   F               D/F#

G|--------------------------------|
D|--------------------------------|
A|-8-8-8-8-8-8-8-8-9-9-9-9-9-9-10-|
E|--------------------------------|
 
   F               G

G|-----------------------------------------|
D|-----------------------------------------|
A|-8-8-8-8-8-8-8-8-10-10-10-10-10-10-10-10-|
E|-----------------------------------------|

   F               D/F#

G|--------------------------------|
D|--------------------------------|
A|-8-8-8-8-8-8-8-8-9-9-9-9-9-9-10-|
E|--------------------------------|


Post-Chorus:

   F         G               F             G

G|---------|-4--------------------------------------------------|
D|---------|-------------5---3-3------------------------------5-|
A|---------|-----------5---x-----3---0-1-2------2-2--3-3--4-5---|
E|-1-------|-3--3-x3-3-------------1-------3-3------------------|

   F         G                    F         G

G|---------|-4------------------------------------------------------------|
D|---------|------------------5---3-------------------------------3-3-5---|
A|---------|----------------5---x---3-x0-x1-------2-2-3-3-4-4-5-5-------x-|
E|-1-1-----|-3-3/\--3-x3-3------------------3--3--------------------------|


Bass Solo:

   F                 G                 F                         G 

G|-----------------------------------|-------------4-5p4---5---7-7/9-7-5-4-5-7-5-----|
D|-------------3-----------------5---|---------5-7-------5-----------------------5---|
A|---------------x-------2-3-4-5---5-|-----5h7---------------5---------------------3-|
E|-1-1--1-x1-1-----x-3-3-------------|-1-1-------------------------------------------|

   F                     G                       F                   G

G|---------------------------------------------|-----------------------------------------|
D|----------5/7-5--5----------------------5----|---------------3-------x5--7--9--7--5----|
A|------3-5----------5----------------5h7---7\-|-----0-1-2-3/5---5\--------------------7-|
E|-1-1-----------------x-3--3-3-3-5/8----------|-1-1----------------x3-------------------|

   F                   G                            F                  
      G

G|------8-9-10----10-|------10-11-12--------------|------8-9-10------------|--------10-11-12--------------------|
D|-------------------|-----------------10----9----|--------------8p7---8p7-|------------------10p9----10p9-9----|
A|-8-8---------x8----|-10-10--------10----10---10-|-8-8--------------8-----|-10-10-----------------10--------10-|
E|-------------------|----------------------------|------------------------|------------------------------------|

   F                     G                                    F        
            G

G|---------------------|--------10-11-12--------------------|--------------------|---------------------------------|
D|-----7-8-9-8-7---8---|------------------10p9----10p9-9----|------7--8-9----8-7-|-5-5-4-4-------------------------|
A|-8-8-----------8---8-|-10-10-----------------10--------10-|-8-8----------8-----|---------7-7-5-5-7-7-5-5-3-3-5-5-|
E|---------------------|------------------------------------|--------------------|---------------------------------|

   F               G               F                 G

G|-------------------------------|------------------------------------|
D|-----------3-------------------|---------------3--------------5-----|
A|-------------x------------x2-3-|-----------3h5---5----x2--3-x---3-3-|
E|-1--1-x1-1-----x-3-3--3-3------|-1-1--1-x1---------3----------------|

   F                   G               F                     G  

G|-------------------------------------|--------------------------------------------------|
D|-3--5/7-5-3-5/6-5--x-------5/7-7/9-7-|-------------------3------------------------------|
A|---------------------2-2-5-----------|------0-1-2-3/5--5---x-------0-0-2-2-3-3-4-4-5--5-|
E|-------------------------------------|-1-1-------------------3-3------------------------|


Pre-Chorus:

   F           G               F             G

G|-------------4-------------|--------------------------|
D|-------------------------5-|-3-3--3-2-----------------|
A|-----------------------5---|----------3---------x2-x3-|
E|-1-/-13-\----3--3-x3-3-----|------------x5-3-x5-------|

   F          G                 F                

G|----------|-4---------------|-----------------------|
D|----------|-------------5---|-----------------------|
A|----------|-----------5---x-|-----------------------|
E|-1-1------|-3--3-x3-3-------|-1--1-1--1-1--1-1--1-1-|

    D/F#            D

G|------------------------------------------|
D|------------------------------------------|
A|-/9-9-9-9-9-9-9-9-------------------------|
E|------------------10-10-10-10-10-10-10-10-|


Chorus:

   F               G

G|-----------------------------------------|
D|-----------------------------------------|
A|-8-8-8-8-8-8-8-8-10-10-10-10-10-10-10-10-|
E|-----------------------------------------|

   F               D/F#

G|-----------------------------------------|
D|-----------------------------------------|
A|-8-8-8-8-8-8-8-8-9-9-9-9-9-9-10----------|
E|-----------------------------------------|

   F               G

G|-----------------------------------------|
D|-----------------------------------------|
A|-8-8-8-8-8-8-8-8-10-10-10-10-10-10-10-10-|
E|-----------------------------------------|

   F               D/F#

G|-----------------------------------------|
D|-----------------------------------------|
A|-8-8-8-8-8-8-8-8-9-9-9-9-9-9-10----------|
E|-----------------------------------------|


Outro:

   F                              G

G|---------------------------------------------------------------------------------|
D|---------------------------------------------------------------------------------|
A|-8--8-8-8-8-8-8-8-8-8-8-8-8-8-8-10-10-10-10-10-10-10-10-10-10-10-10-10-10-10-10--|
E|---------------------------------------------------------------------------------|

   F                               D/F#

G|---------------------------------------------------------------------|
D|---------------------------------------------------------------------|
A|-8-8-8-8-8-8-8-8-8-8-8-8-8-8-8-8-9-9-9-9-9-9-9-9-9-9-9-9-10-10-10-10-|
E|---------------------------------------------------------------------|

   F                               G

G|---------------------------------------------------------------------------------|
D|---------------------------------------------------------------------------------|
A|-8-8-8-8-8-8-8-8-8-8-8-8-8-8-8-8-10-10-10-10-10-10-10-10-10-10-10-10-10-10-10-10-|
E|---------------------------------------------------------------------------------|

   F                               D/F#

G|------------------------------------------------------------|
D|------------------------------------------------------------|
A|-8-8-8-8-8-8-8-8-8-8-8-8-8-8-8-8-9---9---9---9---9---9---10-|
E|------------------------------------------------------------|

   F

G|----------------------------------------------------|
D|----------------------------------------------------|
A|-8--------------------------------------------------|
E|----------------------------------------------------|





Comments


Popular Bamboo tabs & chords
Dinner At 6 Chords
Hudas 3 Chords
Sunshine Song Chords
Kailan 2 Tabs
Little Child Tabs
Umagang Kay Ganda Tabs
247 Ukulele
Kailan Ukulele
Masaya Ukulele
Much Has Been Said Ukulele


Song lyrics



↑ Back to top | Tablatures and chords are parodies/interpretations of the original songs. You may use it for private study, scholarship, research or language learning purposes only
© 2014 AZChords.com Contact us | Privacy policy | DMCA | Add/correct tabs | Request tabs | Top 50 tabs