» » »

Bamboo, Ang Agimat Ni Nardong Patot Tabs (ver.1)

Artists:  A B C D E F G H I J K L M N O P Q R S T U V W X Y Z # 

Ang Agimat Ni Nardong Patot Tabs (ver.1)

Bamboo Tabs
 Rating:
3/5 (6 votes)
Ang Agimat Ni Nardong Patot lessons Tabs too difficult? Try these video lessons and learn fast
1
                
tuning = Drop D (D,A,D,G,B,E)


intro/guitar 1
(all harmonics)
E|-----------------------------------------------------------------||
B|-(12)-----------------(12)------------------------(12)-----------||
G|--------(12)---(12)------------(12)-----(12)--(7)-----------(12)-||
D|-------------------(7)-------------------------------------------||
A|-----(7)----(7)------------(7)------(7)-----------------(7)------||
D|-----------------------------------------------------------------||



E|------------------------------------------||
B|--------------(12)------------------------||
G|-----(12)--------------(12)-----(12)------||
D|----------(7)------(7)------(7)-----------||
A|-(7)--------------------------------------||
D|------------------------------------------||


intro/distortion part/ guitar 1 & 2
E|----------------------------------------------------------||
B|----------------------------------------------------------||
G|----------------------------------------------------------||
D|-2-2-2h3-2-0-2-2-2-2h3-2-2-0-5-5-5h6-5-3-5-5-5-5h6-5-3-0--||
A|-2-2-2h3-2-0-2-2-2-2h3-2-2-0-5-5-5h6-5-3-5-5-5-5h6-5-3-0--||
D|-2-2-2h3-2-0-2-2-2-2h3-2-2-0-5-5-5h6-5-3-5-5-5-5h6-5-3-0--||



E|---------------------------------------------------------------||
B|---------------------------------------------------------------||
G|---------------------------------------------------------------||
D|-2-2-2h3-2-0-2-2-2-2h3-2-2-0-5-5-5h6-5-3-5-5-5-5h6-5-3-0-2~~~~-||
A|-2-2-2h3-2-0-2-2-2-2h3-2-2-0-5-5-5h6-5-3-5-5-5-5h6-5-3-0-2~~~~-||
D|-2-2-2h3-2-0-2-2-2-2h3-2-2-0-5-5-5h6-5-3-5-5-5-5h6-5-3-0-2~~~~-||


verse 1 /guitar 1

E|-----------------------------------------------------------------||
B|-(12)-----------------(12)------------------------(12)-----------||
G|--------(12)---(12)------------(12)-----(12)--(7)-----------(12)-||
D|-------------------(7)-------------------------------------------||
A|-----(7)----(7)------------(7)------(7)-----------------(7)------||
D|-----------------------------------------------------------------||



E|------------------------------------------||
B|--------------(12)------------------------||
G|-----(12)--------------(12)-----(12)------||
D|----------(7)------(7)------(7)-----------||
A|-(7)--------------------------------------||
D|------------------------------------------||

verse 2 / guitar 1

E|-----------------------------------------------------------------||
B|-(12)-----------------(12)------------------------(12)-----------||
G|--------(12)---(12)------------(12)-----(12)--(7)-----------(12)-||
D|-------------------(7)-------------------------------------------||
A|-----(7)----(7)------------(7)------(7)-----------------(7)------||
D|-----------------------------------------------------------------||



E|------------------------------------------||
B|--------------(12)------------------------||
G|-----(12)--------------(12)-----(12)------||
D|----------(7)------(7)------(7)-----------||
A|-(7)--------------------------------------||
D|------------------------------------------||



refrain / guitar 1

E|-----------------------------------------------------------------||
B|-(12)-----------------(12)------------------------(12)-----------||
G|--------(12)---(12)------------(12)-----(12)--(7)-----------(12)-||
D|-------------------(7)-------------------------------------------||
A|-----(7)----(7)------------(7)------(7)-----------------(7)------||
D|-----------------------------------------------------------------||



E|------------------------------------------||
B|--------------(12)------------------------||
G|-----(12)--------------(12)-----(12)------||
D|----------(7)------(7)------(7)-----------||
A|-(7)--------------------------------------||
D|------------------------------------------||


chorus / guitar 1

E|----------------------------------------------||
B|----------------------------------------------||
G|-----------5-5--------------------5-5---------||
D|-2-2--0-0--5-5--00000000--2-2--0--5-5--00000--||
A|-2-2--0-0--3-3--00000000--2-2--0--3-3--00000--||
D|-2-2--0-0-------00000000--2-2--0-------00000--||

E|-------------------------------------------------------------------------||
B|-------------------------------------------------------------------------||
G|-------------------55555555-------------------00000000-55555555----------||
D|-22222222-00000000-55555555-00000000-22222222-00000000-55555555-00000000-||
A|-22222222-00000000-33333333-00000000-22222222-00000000-33333333-00000000-||
D|-22222222-00000000----------00000000-22222222-00000000----------00000000-||


interlude
E|----------------------------------------------------------||
B|----------------------------------------------------------||
G|----------------------------------------------------------||
D|-2-2-2h3-2-0-2-2-2-2h3-2-2-0-5-5-5h6-5-3-5-5-5-5h6-5-3-0--||
A|-2-2-2h3-2-0-2-2-2-2h3-2-2-0-5-5-5h6-5-3-5-5-5-5h6-5-3-0--||
D|-2-2-2h3-2-0-2-2-2-2h3-2-2-0-5-5-5h6-5-3-5-5-5-5h6-5-3-0--||



E|---------------------------------------------------------------||
B|---------------------------------------------------------------||
G|---------------------------------------------------------------||
D|-2-2-2h3-2-0-2-2-2-2h3-2-2-0-5-5-5h6-5-3-5-5-5-5h6-5-3-0-2~~~~-||
A|-2-2-2h3-2-0-2-2-2-2h3-2-2-0-5-5-5h6-5-3-5-5-5-5h6-5-3-0-2~~~~-||
D|-2-2-2h3-2-0-2-2-2-2h3-2-2-0-5-5-5h6-5-3-5-5-5-5h6-5-3-0-2~~~~-||



verse 3/guitar 1

E|-----------------------------------------------------------------||
B|-(12)-----------------(12)------------------------(12)-----------||
G|--------(12)---(12)------------(12)-----(12)--(7)-----------(12)-||
D|-------------------(7)-------------------------------------------||
A|-----(7)----(7)------------(7)------(7)-----------------(7)------||
D|-----------------------------------------------------------------||



E|------------------------------------------||
B|--------------(12)------------------------||
G|-----(12)--------------(12)-----(12)------||
D|----------(7)------(7)------(7)-----------||
A|-(7)--------------------------------------||
D|------------------------------------------||

verse 4/ guitar 1

E|-----------------------------------------------------------------||
B|-(12)-----------------(12)------------------------(12)-----------||
G|--------(12)---(12)------------(12)-----(12)--(7)-----------(12)-||
D|-------------------(7)-------------------------------------------||
A|-----(7)----(7)------------(7)------(7)-----------------(7)------||
D|-----------------------------------------------------------------||



E|------------------------------------------||
B|--------------(12)------------------------||
G|-----(12)--------------(12)-----(12)------||
D|----------(7)------(7)------(7)-----------||
A|-(7)--------------------------------------||
D|------------------------------------------||



refrain / guitar 1

E|-----------------------------------------------------------------||
B|-(12)-----------------(12)------------------------(12)-----------||
G|--------(12)---(12)------------(12)-----(12)--(7)-----------(12)-||
D|-------------------(7)-------------------------------------------||
A|-----(7)----(7)------------(7)------(7)-----------------(7)------||
D|-----------------------------------------------------------------||



E|------------------------------------------||
B|--------------(12)------------------------||
G|-----(12)--------------(12)-----(12)------||
D|----------(7)------(7)------(7)-----------||
A|-(7)--------------------------------------||
D|------------------------------------------||


chorus / guitar 1

E|----------------------------------------------||
B|----------------------------------------------||
G|-----------5-5--------------------5-5---------||
D|-2-2--0-0--5-5--00000000--2-2--0--5-5--00000--||
A|-2-2--0-0--3-3--00000000--2-2--0--3-3--00000--||
D|-2-2--0-0-------00000000--2-2--0-------00000--||

E|-------------------------------------------------------------------------||
B|-------------------------------------------------------------------------||
G|-------------------55555555-------------------00000000-55555555----------||
D|-22222222-00000000-55555555-00000000-22222222-00000000-55555555-00000000-||
A|-22222222-00000000-33333333-00000000-22222222-00000000-33333333-00000000-||
D|-22222222-00000000----------00000000-22222222-00000000----------00000000-||



and thats it! this song is so easy and so cool
there are some bits missing that i will update soon
            
Submit corrections

comments powered by Disqus
↑ Back to top | Bamboo Tabs for Ang Agimat Ni Nardong Patot. Lyrics for acoustic guitar and electric guitar. 1 Tablatures and chords are parodies/interpretations of the original songs. You may use it for private study, scholarship, research or language learning purposes only