» » »

Bamboo, 50 Ways To Leave Your Lover Tabs (ver.2)

Artists:  A B C D E F G H I J K L M N O P Q R S T U V W X Y Z # 

50 Ways To Leave Your Lover Tabs (ver.2)

Bamboo Tabs
 Rating:
4/5 (4 votes)
50 Ways To Leave Your Lover lessons Tabs too difficult? Try these video lessons and learn fast
                intro-

   Em   B   Am  Em Em  B Am B Em  B   Am  B       Em  B  Em   
e|------------------------------------------------------------------|
B|---/8-7-/10~-8--/8~-7-5-4--/8~-7--/10~---/12~--/8~-7--/8~---------|
G|------------------------------------------------------------------|
D|------------------------------------------------------------------|
A|------------------------------------------------------------------|
E|------------------------------------------------------------------|



Em               G          C
The problem is all inside your head
          B
She said to me
 Em             G
The answer is easy if you
A        B          Em
Take it logically
              G                C
I’d like to help you in your struggle 
B
To be free
        Em              A
There must be fifty ways
                Em
To leave your lover

Em           G               C
She said it’s really not my habit
B
To intrude
Em                          G
Furthermore, I hope my meaning
           B
Won’t be lost or misconstrued
                 Em-B
But I’ll repeat myself
     C               B
At the risk of being crude
            Em         A
There must be fifty ways
             Em
To leave your lover
Em             A         Em      A
Fifty ways to leave your lover

CHORUS:
G
You just slip out the back, Jack
             Bb
Make a new plan, Stan
                     C
You don’t need to be coy, Roy
                  G
Just get yourself free   
Hop on the bus, Gus
                   Bb
You don’t need to discuss much
                    C
Just drop off the key, Lee
And get yourself free
  
    Em   G C   B Em   B Am Em  Am    C     B Em Am Em
e|---------------------------------/12~-10--------------|
B|-------------------------/8-/10~---------/8~--7---/8~-|
G|--/9~--7-------/12~--9-8------------------------------|
D|---------/9~-7----------------------------------------|
A|------------------------------------------------------|
E|------------------------------------------------------|

Em          G
She said it grieves me so
    C             B
To see you in such pain
Em                                 G
I wish there was something I could do
C                   B
To make you smile again
           Em          G
I said I appreciate that
     Am                 B
And would you please explain
 C             B  C      Em
About the fifty ways


Em              G
She said why don’t we both
       C            B
Just sleep on it tonight
Em           Em7 
And I believe in the morning
       B
You’ll begin to see the light
                 Em
And then she kissed me 
       Em                  C
And I realized she probably was right
Em                A
There must be fifty ways
             Em
To leave your lover
Em        A          Em
Fifty ways to leave your lover

 REPEAT CHORUS2X

ADLIB
 
REPEAT CHO 3X

CODA-
Em  B   Am  Em 
Em  B Am B 
Em  B   Am  B       
Em  B  Em   
            
Submit corrections

comments powered by Disqus
↑ Back to top | Bamboo Tabs for 50 Ways To Leave Your Lover. Lyrics for acoustic guitar and electric guitar. Tablatures and chords are parodies/interpretations of the original songs. You may use it for private study, scholarship, research or language learning purposes only