» » »

Balzac, Day The Eath Caught Fire Tabs (ver.1)

Artists:  A B C D E F G H I J K L M N O P Q R S T U V W X Y Z # 

Day The Eath Caught Fire Tabs (ver.1)

Balzac Tabs
 Rating:
4.3/5 (6 votes)
Day The Eath Caught Fire lessons Tabs too difficult? Try these video lessons and learn fast
                Balzac - Day the Earth Caught Fire
Tuning: Standard (E A D G B E)

This is another one of my tabs, hope i did good...enjoy




p.m.=palm mute
x=pick scr*pe
reg.= regular (no palm mute)
stac.=stacatto


Intro

E|--------------------------------||
B|--------------------------------||
G|----7---------------------------||
D|----7---9-----------------------||
A|----5---9-----------------------||
E|--------7-----------------------||


Verse

E|----------------------------------------------------------------||
B|----------------------------------------------------------------||
G|--7-------------------------------------------------------------||
D|--7---9---99999999999999---9------99999999999999----------------||  
A|--5---9---99999999999999---9------99999999999999----------------||
E|------7---77777777777777---7------77777777777777----------------||
            p.m.            reg.    p.m.



E|------------------------------------------------||
B|------------------------------------------------||
G|------------------------------------------------||
D|----5-xxxxxx--5-xxxxxx--5-xxxxxx---5------------||
A|----5-xxxxxx--5-xxxxxx--5-xxxxxx---5------------||
E|----3-xxxxxx--3-xxxxxx--3-xxxxxx---3------------||


Bridge#1


E|----------------------------------------------------------------||
B|----------------------------------------------------------------||
G|--7-------------------------  7--777777-------------------------||
D|--7---9--999999---5--555555---7--777777---7--777777-------------||
A|--5---9--999999---5--555555---5--555555---7--777777-------------||
E|------7--777777---3--333333-------------- 5--555555-------------||
           p.m.    reg.  p.m.  reg. p.m.   reg.  p.m.


E|----------------------------------------------------------------||
B|----------------------------------------------------------------||
G|-----------------------------------------9----------------------||
D|-----9--999999---5--555555---7--777777---9---7------------------||
A|-----9--999999---5--555555---7--777777---7---7------------------||
E|-----7--777777---3--333333---5--555555-------5------------------||
           p.m.   reg. p.m.  reg. p.m.    reg.  


E|----------------------------------------------------------------||
B|----------------------------------------------------------------||
G|--7-------------------------  7--777777-------------------------||
D|--7---9--999999---5--555555---7--777777---7--777777-------------||
A|--5---9--999999---5--555555---5--555555---7--777777-------------||
E|------7--777777---3--333333-------------- 5--555555-------------||
           p.m.    reg.  p.m.  reg. p.m.   reg.  p.m.

E|----------------------------------------------------------------||
B|----------------------------------------------------------------||
G|----------------------------------------------------------------||
D|-----9--999999---5--555555---7--7-7-7-7-7-7-7-7-7-7-7-7-7-7-----||
A|-----9--999999---5--555555---7--7-7-7-7-7-7-7-7-7-7-7-7-7-7-----||
E|-----7--777777---3--333333---5--5-5-5-5-5-5-5-5-5-5-5-5-5-5-----||
           p.m.   reg. p.m.  reg. 


Chorus

E|------------------------------------------------||
B|------------------------------------------------||
G|---7-7-7-7--6-6-6-6--4-4-4-4--------------------||
D|---7-7-7-7--6-6-6-6--4-4-4-4--5-5--7-7----------||
A|---5-5-5-5--4-4-4-4--2-2-2-2--5-5--7-7----------||
E|------------------------------3-3--5-5----------||
     stac.


Bridge #2

E|----------------------------------------------------------------||
B|----------------------------------------------------------------||
G|-------------------(elevens)--11~11~11~11~11~11~11--------------||
D|----9--9--9--9--------------------------------------------------||
A|----9--9--9--9--------------------------------------------------||
E|----7--7--7--7--------------------------------------------------||






Song order:

Intro    x1
Verse    x2
Bridge#1 x2
Chorus   x4
Bridge#2 x1
Verse    x2
Bridge#1 x2
Chorus   x4 (with stacatto)
Chorus   x2 (no stacatto)
Chorus   x2 (with stacatto)

This one kinda confused me but i got it...ha
thanks again...Mike Cortez
            
Submit corrections

comments powered by Disqus
↑ Back to top | Balzac Tabs for Day The Eath Caught Fire. Lyrics for acoustic guitar and electric guitar. Tablatures and chords are parodies/interpretations of the original songs. You may use it for private study, scholarship, research or language learning purposes only