>
 >
A Tale From The Deep Woods

A Tale From The Deep Woods Bass Tabs

Bal-Sagoth - A Tale From The Deep Woods chords, tabs, tablatures, lyrics

Guitar lessons | Add/correct | Request | Top 50 tabs Artists:  A B C D E F G H I J K L M N O P Q R S T U V W X Y Z 0-9

A Tale From The Deep Woods Bass Tabs – Bal-Sagoth

CD, Sheet music, Poster

Do you like A Tale From The Deep Woods? Share with your friends now
Bass Tabs
tune down

F#||----------------------|------------------------|----------------------|
C#||-----------------4----|------------------------|-----------------4----|
G#||--2----5----4---------|--2----5-4-2--0---------|--2----5----4---------|
D#||----------------------|-------------------2----|----------------------|


                                                                         
------------------------|----------------------|------------------------|
------------------------|-----------------4----|------------------------|
--2----5-4-2--0---------|--2----5----4---------|--2----5-4-2--0---------|
-------------------2----|----------------------|-------------------2----|


                                                          
----------------------------|----------------------------|
---------------------4------|---------------------4------|
--2---4-5-4-2--0--4-----0-1-|--2---4-5-4-2--0--4-----0-1-|
----------------------------|----------------------------|


                                                          
----------------------------|----------------------------|
---------------------4------|---------------------4------|
--2---4-5-4-2--0--4-----0-1-|--2---4-5-4-2--0--4-----0-1-|
----------------------------|----------------------------|


                                                          
----------------------------|----------------------------|
---------------------4------|---------------------4------|
--2---4-5-4-2--0--4-----0-1-|--2---4-5-4-2--0--4-----0-1-|
----------------------------|----------------------------|


                                                              
------------------------------|------------------------------|
------------------------------|------------------------------|
--2--2-2-2--2-2-2--2-2-2--2-2-|--2--2-2-2--2-2-2--2-2-2--2-2-|
------------------------------|------------------------------|


                                                                    
---------------------------|---------------------------------------|
---------2-----------------|---------------------------------------|
--2--4-4--------5-4-5--4-2-|--4--2-0-2--0--------------------------|
---------------------------|---------------3-3-3-3-2-2-3-3-3-3-3-3-|


                                                                    
---------------------------|---------------------------------------|
---------2-----------------|---------------------------------------|
--2--4-4--------5-4-5--4-2-|--4--2-0-2--0--------------------------|
---------------------------|---------------3-3-3-3-2-2-3-3-3-3-3-3-|


                                                             
----------------------------|-------------------------------|
---------7----5--4-2-4--2-0-|--2----------------------------|
--2--4-5--------------------|-----5-4-5--4--2-2-2-0-2-2-2-2-|
----------------------------|-------------------------------|


                                                                               
----------------------------|------------------------------|------------------|
----------------------------|------------------------------|------------------|
--2--4-5-7----7--5-4-5--4-2-|--4--2-0-2--0--2-2-2---2-2-2--|------------------|
----------------------------|---------------------2--------|------------------|


                                                         
------------------|------------------|------------------|
------------------|------------------|------------------|
------------------|------------------|------------------|
------------------|------------------|------------------|


                                                      
--------------------------|--------------------------|
--------------------------|--------------------------|
--------------------------|--2-2-2-2-2-2-------------|
--2--2--2--2--2--2--2--2--|--------------2-2-2-2-2-2-|


                                                      
--------------------------|--------------------------|
--------------------------|--------------------------|
--5-5-5-5-5-5-------------|--2-2-2-2-2-2-------------|
--------------5-5-5-5-5-5-|--------------2-2-2-2-2-2-|


                                                      
--------------------------|--------------------------|
--------------------------|--------------------------|
--5-5-5-5-5-5-------------|--2-2-2-2-2-2-------------|
--------------5-5-5-5-5-5-|--------------2-2-2-2-2-2-|


                                                      
--------------------------|--------------------------|
--------------------------|--------------------------|
--5-5-5-5-5-5-------------|--2-2-2-2-2-2-------------|
--------------5-5-5-5-5-5-|--------------2-2-2-2-2-2-|


                                                      
--------------------------|--------------------------|
--------------------------|--------------------------|
--5-5-5-5-5-5-------------|--1-1-1-1-1-1-------------|
--------------5-5-5-5-5-5-|--------------1-1-1-1-1-1-|


                                                      
--------------1-1-1-------|--------------------------|
----------1-1-------3-3-3-|--------------------------|
--------------------------|--1-1-1-1-1-1-------------|
--2-2-2-2-----------------|--------------1-1-1-1-1-1-|


                                                      
--------------1-1-1-------|--------------------------|
----------1-1-------3-3-3-|--------------------------|
--------------------------|--1-1-1-1-1-1-------------|
--2-2-2-2-----------------|--------------1-1-1-1-1-1-|


                                                      
--------------1-1-1-------|--------------------------|
----------1-1-------3-3-3-|--------------------------|
--------------------------|--1-1-1-1-1-1-------------|
--2-2-2-2-----------------|--------------1-1-1-1-1-1-|


                                                      
--------------1-1-1-------|--------------------------|
----------1-1-------3-3-3-|--------------------------|
--------------------------|--2-2-2-2-2-2-------------|
--2-2-2-2-----------------|--------------2-2-2-2-2-2-|


                                                      
--------------------------|--------------------------|
--------------------------|--------------------------|
--5-5-5-5-5-5-------------|--2-2-2-2-2-2-------------|
--------------5-5-5-5-5-5-|--------------2-2-2-2-2-2-|


                                                      
--------------------------|--------------------------|
--------------------------|--------------------------|
--5-5-5-5-5-5-------------|--2-2-2-2-2-2-------------|
--------------5-5-5-5-5-5-|--------------2-2-2-2-2-2-|


                                                      
--------------------------|--------------------------|
--------------------------|--------------------------|
--5-5-5-5-5-5-------------|--2-2-2-2-2-2-------------|
--------------5-5-5-5-5-5-|--------------2-2-2-2-2-2-|


                                                               
--------------------------|-----------------------------------|
--------------------------|-----5--4--2--4--------------------|
--5-5-5-5-5-5-------------|--2--------------2-2-2-2-2-2-2-2-2-|
--------------5-5-5-5-5-5-|-----------------------------------|


                                                               
-----------------------------------|--------------------------|
-----------------------------------|-----5--4--2--4--2--------|
--2--2--------2--2-2-2-2-2-2-2-2-2-|--2-----------------5--4--|
--------2--2-----------------------|--------------------------|


                                                             
------------------------|-----------------------------------|
------------------------|-----5--4--2--4--------------------|
--4---------------------|--2--------------2-2-2-2-2-2-2-2-2-|
-------3----3--2--3--5--|-----------------------------------|


                                                               
-----------------------------------|--------------------------|
-----------------------------------|-----5--4--2--4--2--------|
--2--2--------2--2-2-2-2-2-2-2-2-2-|--2-----------------5--4--|
--------2--2-----------------------|--------------------------|


                                                                  
----------------------|----------------------|-------------------|
-------2--------------|-------2--------------|-------------------|
--0-------------------|--0---------0---------|-------------------|
------------2----3----|-----------------2----|--3----------------|


                                                             
--------------------------------|---------------------------|
--4-0---0-5---4-2-------4-0-2---|--0-------2---0------------|
------2-----------4-0-4-------4-|----2---2-------1--4--2----|
--------------------------------|------3--------------------|


                                                             
--------------------------------|---------------------------|
--4-0---0-5---4-2-------4-0-2---|--0-------2---0------------|
------2-----------4-0-4-------4-|----2---2-------1--4--2----|
--------------------------------|------3--------------------|


                                                                        
-----------------------------------|-----------------------------------|
-----5--4--2--4--------------------|-----------------------------------|
--2--------------2-2-2-2-2-2-2-2-2-|--2--2--------2--2-2-2-2-2-2-2-2-2-|
-----------------------------------|--------2--2-----------------------|


                                                 
--------------------------|---------------------|
-----5--4--2--4--2--------|--0--------2---------|
--2-----------------5--4--|----------------0----|
--------------------------|---------------------|


                                                                        
-----------------------------------|-----------------------------------|
-----5--4--2--4--------------------|-----------------------------------|
--2--------------2-2-2-2-2-2-2-2-2-|--2--2--------2--2-2-2-2-2-2-2-2-2-|
-----------------------------------|--------2--2-----------------------|


                                                                               
--------------------------|----------------------|----------------------------|
-----5--4--2--4--2--------|--2-------------------|---------7----5--4-2-4--2-0-|
--2-----------------5--4--|-------0----2----0----|--2--4-5--------------------|
--------------------------|----------------------|----------------------------|


                                                             
-------------------------------|----------------------------|
--2----------------------------|----------------------------|
-----5-4-5--4--2-2-2-0-2-2-2-2-|--2--4-5-7----7--5-4-5--4-2-|
-------------------------------|----------------------------|


                                                            
------------------------------|----------------------------|
------------------------------|---------7----5--4-2-4--2-0-|
--4--2-0-2--0--2-2-2---2-2-2--|--2--4-5--------------------|
---------------------2--------|----------------------------|


                                                             
-------------------------------|----------------------------|
--2----------------------------|----------------------------|
-----5-4-5--4--2-2-2-0-2-2-2-2-|--2--4-5-7----7--5-4-5--4-2-|
-------------------------------|----------------------------|


                                                           
----------------------------|-----------------------------|
----------------------------|-----------------------------|
--4--2-0-2--0--2-2-2---2----|-----------------------------|
---------------------2------|--2--2-2-3--3-3-2--2-2-5--3--|


                                                           
----------------------------|-----------------------------|
----------------------------|-----------------------------|
----------------------------|-----------------------------|
--2--2-2-3--0--2-0-2-0-2----|--2--2-2-3--3-3-2--2-2-5--3--|


                                                              
----------------------------|--------------------------------|
----------------------------|--4-0---0-5---4-2-------4-0-2---|
----------------------------|------2-----------4-0-4-------4-|
--2--2-2-3--0--2-0-2-0-2----|--------------------------------|


                                                             
---------------------------|--------------------------------|
--0-------2---0------------|--4-0---0-5---4-2-------4-0-2---|
----2---2-------1--4--2----|------2-----------4-0-4-------4-|
------3--------------------|--------------------------------|


                                                             
---------------------------|--------------------------------|
--0-------2---0------------|--4-0---0-5---4-2-------4-0-2---|
----2---2-------1--4--2----|------2-----------4-0-4-------4-|
------3--------------------|--------------------------------|


                                                             
---------------------------|--------------------------------|
--0-------2---0------------|--4-0---0-5---4-2-------4-0-2---|
----2---2-------1--4--2----|------2-----------4-0-4-------4-|
------3--------------------|--------------------------------|


                                                               
---------------------------|----------------------------------|
--0-------2---0------------|--5-5-5-5-5-5-5-5-4-4-4-4-4-4-4-4-|
----2---2-------1--4--2----|----------------------------------|
------3--------------------|----------------------------------|


                                                             
---------------------------|-----------|--------------------|
--2-2-2-2-2-2-2-2----------|-----------|--------------------|
------------------4--------|-----------|--2-----------------|
---------------------------|--2--------|-----------2--------|


                                                               
--------------------|--------------------|--------------------|
--------------------|--------------------|--------------------|
--5-----------------|--2-----------------|--5-----------------|
-----------5--------|-----------2--------|-----------5--------|


                                                               
--------------------|--------------------|--------------------|
--------------------|--------------------|--------------------|
--2-----------------|--5-----------------|--2-----------------|
-----------2--------|-----------5--------|-----------2--------|


                                                               
--------------------|--------------------|--------------------|
--------------------|--------------------|--------------------|
--5-----------------|--2-----------------|--5-----------------|
-----------5--------|-----------2--------|-----------5--------|


                                                               
--------------------|--------------------|--------------------|
--------------------|--------------------|--------------------|
--2-----------------|--5-----------------|--2-----------------|
-----------2--------|-----------5--------|-----------2--------|


                                                               
--------------------|--------------------|--------------------|
--------------------|--------------------|--------------------|
--5-----------------|--2-----------------|--5-----------------|
-----------5--------|-----------2--------|-----------5--------|


                                                                      
----------------------------------|----------------------------------|
----------------------------------|----------------------------------|
--2-2-2-2-2-------2-2-2-2-2-4-5-4-|--2-2-2-2-2-----------2-4-5-4-2-4-|
------------2-3-2-----------------|------------2-3-2-3-5-------------|


                                                                      
----------------------------------|----------------------------------|
----------------------------------|----------------------------------|
--2-2-2-2-2-------2-2-2-2-2-4-5-4-|--2-2-2-2-2-----------2-4-5-4-2-4-|
------------2-3-2-----------------|------------2-3-2-3-5-------------|


                                                                                
--------------------------|-------------------------|--------------------------|
--------2---0-------------|--------2---0------------|--------2---0-------------|
--2--2--------------5---4-|--------------------2----|--2--2--------------5---4-|
--------------3--3--------|--3--3--------2--2-------|--------------3--3--------|


                                                             
-------------------------|----------------------------------|
--------2---0------------|----------------------------------|
--------------------2----|--2-2-2-2-2-------2-2-2-2-2-4-5-4-|
--3--3--------2--2-------|------------2-3-2-----------------|


                                                                      
----------------------------------|----------------------------------|
----------------------------------|----------------------------------|
--2-2-2-2-2-----------2-4-5-4-2-4-|--2-2-2-2-2-------2-2-2-2-2-4-5-4-|
------------2-3-2-3-5-------------|------------2-3-2-----------------|


                                                              
----------------------------------|--------------------------|
----------------------------------|--------2---0-------------|
--2-2-2-2-2-----------2-4-5-4-2-4-|--2--2--------------5---4-|
------------2-3-2-3-5-------------|--------------3--3--------|


                                                                               
-------------------------|--------------------------|-------------------------|
--------2---0------------|--------2---0-------------|--------2---0------------|
--------------------2----|--2--2--------------5---4-|--------------------2----|
--3--3--------2--2-------|--------------3--3--------|--3--3--------2--2-------|


                                                             
--------------------------------|---------------------------|
--4-0---0-5---4-2-------4-0-2---|--0-------2---0------------|
------2-----------4-0-4-------4-|----2---2-------1--4--2----|
--------------------------------|------3--------------------|


                                                             
--------------------------------|---------------------------|
--4-0---0-5---4-2-------4-0-2---|--0-------2---0------------|
------2-----------4-0-4-------4-|----2---2-------1--4--2----|
--------------------------------|------3--------------------|


                                                                           
--------------------|--------------------------|--------------------------|
--2-0---------------|--------------------------|--------------------------|
------4-2-----------|--2--2--2--2--2--2--------|--2--2--2--2--2--2--------|
----------2----2----|--------------------2--2--|--------------------2--2--|


                                                                             
--------------------------|--------------------------|----------------------|
--------------------------|--------------------------|----------------------|
--2--2--2--2--2--2--------|--2--2--2--2--2--2--------|--2-------------------|
--------------------2--2--|--------------------2--2--|-------3----2----2----|


                                                                     
----------------------|----------------------|----------------------|
----------------------|----------------------|----------------------|
--2-------------------|--2-------------------|--2-------------------|
-------3----2----2----|-------3----2----2----|-------3----2----2----|


                                                                  
----------------------|----------------------|-------------------|
-------2----0---------|----------------------|-------------------|
--2--------------4----|--5----4----2---------|--2----------------|
----------------------|-----------------2----|-------------------|


                                       
------------------|------------------||
------------------|------------------||
------------------|------------------||
------------------|------------------||





Comments


Popular Bal-Sagoth tabs & chords
Battle Magic Tabs
Naked Steel Tabs
Naked Steel The Warriors Saga Tabs
When Rides The Scion Of The Storms Tabs


Song lyrics



↑ Back to top | Tablatures and chords are parodies/interpretations of the original songs. You may use it for private study, scholarship, research or language learning purposes only
© 2014 AZChords.com Contact us | Privacy policy | DMCA | Add/correct tabs | Request tabs | Top 50 tabs