» » »

The Friend Zone Tabs (ver.1)

Artists:  A B C D E F G H I J K L M N O P Q R S T U V W X Y Z # 

The Friend Zone Tabs (ver.1)

Ballyhoo
Rating:
0/5 (0 votes)

Hard to play? Try these video lessons and learn fast.
                Ballyhoo
"The Friend Zone"
Standard tuning

I know this is right because I got it straight from Howi over email.
Its very easy :)
You may need to just listen to the song to get the picking just right or to just play it 
it feels right to you.

Intro x2 & Main Riff
e|--------------------|---------------------|
B|--------------------|---------------------|
G|--------------------|---------------------|
D|--------------------|---------------------|
A|--------4-7-------4-|------4-7------------|
E|--5--55-----3-333---|-5-55-----3-33-2-0---|

Verse
(upstrokes)

e|--5--5----3--3-----|R
B|--5--5----3--3-----|E
G|--6--6----4--4-----|P
D|--7--7----5--5-----|E
A|-------------------|A
E|-------------------|T

Prechorus
e|---------------------------------------------------------|
B|---------------------------------------------------------|
G|----------------------7---7---7--------------------------|
D|--7---7---7-5---5---5-7---7---7-3---3---3----------------|
A|--7---7---7-5---5---5-5---5---5-3---3---3----------------|
E|--5---5---5-3---3---3-----------1---1---1----------------|

e|------------------------------------------------------|
B|------------------------------------------------------|
G|----------------------7---7---7-10--10-10-10-10-10----|
D|--7---7---7-5---5---5-7---7---7-10--10-10-10-10-10----|
A|--7---7---7-5---5---5-5---5---5-8---8--8--8--8--8-----|
E|--5---5---5-3---3---3---------------------------------|

Chorus
e|-----------------------------------------------------------|
B|-----------------------------------------------------------|
G|-------------------------7--7--777-------------------------|
D|--7--7--777---5--5-555---7--7--777---3--3--333-------------|
A|--7--7--777---5--5-555---5--5--555---3--3--333-------------|
E|--5--5--555---3--3-333---------------1--1--111-------------|

e|------------------------------------------------------|
B|------------------------------------------------------|
G|-------------------------7--7--777---10--10--10-10-10-|
D|--7--7--777---5--5-555---7--7--777---10--10--10-10-10-|
A|--7--7--777---5--5-555---5--5--555---8---8---8--8--8--|
E|--5--5--555---3--3-333--------------------------------|


Solo is played in the key of A
Howi's solo is pretty cool but I always find it fun
to come up with one on my own :)
I think I figured out the solo for the most part. I'll post what I have later.

Enjoy
            
Hard to play? Try these video lessons and learn fast. | Correct




comments powered by Disqus
↑ Back to top | Tablatures and chords are parodies/interpretations of the original songs. You may use it for private study, scholarship, research or language learning purposes only