>
 >
Somewhere Tropical

Somewhere Tropical Guitar Tabs

Ballyhoo - Somewhere Tropical chords, tabs, tablatures, lyrics

Guitar lessons | Add/correct | Request | Top 50 tabs Artists:  A B C D E F G H I J K L M N O P Q R S T U V W X Y Z 0-9

Somewhere Tropical Guitar Tabs – Ballyhoo

CD, Sheet music, Poster

Do you like Somewhere Tropical? Share with your friends now
ChordsTabsTabs v2
INTRO (distortion, muted, first 3 notes of each part played quickly)
                3x                               1x
E|---------------------------------|-----------------------------|
B|---------------------------------|-----------------------------|
G|---------------------------------|-----------------------------|
D|-0-0-0-0-4-0-4-5-----------------|-0-0-0-0-4-0-4h5-------------|
A|-----------------3-3-3-3-3-5-3-2-|-----------------5-5-5-7-7-7-|
E|---------------------------------|-----------------3-3-3-5-5-5-|

VERSE (clean, 'reggae-style', full chords below)
    
E|-------3-3-----0--2-2--3-3--0-0--0-0-|
B|-7-7-7-3-3-7-7-2--3-3--3-3--0-0--2-2-|
G|-7-7-7-4-4-7-7-2--4-4--4----0----2---|
D|-7-7-7-----7-7----4------------------|
A|-5----------------2------------------|
E|-------------------------------------|
   D     G   D   A  Bm   G    Em   A

BRIDGE (clean)
                                strum the last A7 multiple times
E|-0-0-0-------0---0-0-0-------0---0-0-0-------0---0-|
B|-0-0---0---0---0-2-2---2---2---2-0-0---0---0---0-2-|
G|-0-0-----0-------0-0-----0-------0-0-----0-------0-|
D|-2-2-------------2-2-------------2-2-------------2-|
A|-2-2-------------0-0-------------2-2-------------0-|
E|-0-0-----------------------------0-0---------------|
   Em              A7              Em              A7

CHORUS (clean, first two times as below, second two times add more strumming)

E|-------2-2-2-3-3-3-5-5-5-|
B|-7-7-7-2-2-2-3-3-3-5-5-5-|
G|-7-7-7-2-2-2-4-4-4-6-6-6-|
D|-7-7-7-4-4-4-5-5-5-7-7-7-|
A|-5-5-5-4-4-4-5-5-5-7-7-7-|
E|-------2-2-2-3-3-3-5-5-5-|
   D     F#m   G     A

SOLO 1 (distorted)

E|-7-5----5-7-5-------------------------------------------------7-5-----|
B|-----7--------7-5---5-7-5-----------5-------5-5h7-5---5-----------7-5-|
G|------------------7-------7-4-4h6h7---7-4-7---------7---7-4-7---------|
D|----------------------------------------------------------------------|
A|----------------------------------------------------------------------|
E|----------------------------------------------------------------------|

E|-----------------------------------12h14p12-10----10------------------|
B|-7-5-------------------5-7-5---5---------------12----12-10------------|
G|-----7-4-4h6h7-4-7-4-7-------7---7-------------------------9-11-12-11-|
D|----------------------------------------------------------------------|
A|----------------------------------------------------------------------|
E|----------------------------------------------------------------------|

E|--------------------------------------------7-7-9-9-10-9-|
B|------------------------8---8-7-7-8-8-10-10--------------|
G|-9-9-11/12\11-9-7-7-6-6---9------------------------------|
D|---------------------------------------------------------|
A|---------------------------------------------------------|
E|---------------------------------------------------------|

SOLO 2 / END (distorted)

E|-9h10-9-7-9-7---------7-7-9-----10-10-9-9-------------------7-7-9-9-|
B|--------------10-7-10-------8-8-----------8-8-7-7-8-8-10-10---------|
G|--------------------------------------------------------------------|
D|--------------------------------------------------------------------|
A|--------------------------------------------------------------------|
E|--------------------------------------------------------------------|

E|-10-10-9-------10-|
B|------------------|
G|------------------|
D|------------------|
A|------------------|
E|------------------|

ORDER: Intro, Verse, Chorus, Intro, Verse, Chorus, Solo 1, Chorus, Solo 2





Comments


Popular Ballyhoo tabs & chords
Antisocial Chords
Bad Credit Chords
Cali Girl 1 Chords
The Quest Chords
Walk Away Chords
Cervesa Tabs
Cheers! Tabs
Everything Tabs
Somewhere Tropical 2 Tabs
The Fool Tabs


Song lyrics



↑ Back to top | Tablatures and chords are parodies/interpretations of the original songs. You may use it for private study, scholarship, research or language learning purposes only
© 2014 AZChords.com Contact us | Privacy policy | DMCA | Add/correct tabs | Request tabs | Top 50 tabs