>
 >
Paper Dolls

Paper Dolls Guitar Tabs

Ballyhoo - Paper Dolls chords, tabs, tablatures, lyrics

Guitar lessons | Add/correct | Request | Top 50 tabs Artists:  A B C D E F G H I J K L M N O P Q R S T U V W X Y Z 0-9

Paper Dolls Guitar Tabs – Ballyhoo

CD, Sheet music, Poster

Do you like Paper Dolls? Share with your friends now
Tabs
INTRO/CHORUS (strum main chords a lot according to song, strum not shown for the power chords)
E|---------------|
B|---------------|
G|---5/6-----5/6-|
D|-6-5/6---3-5/6-|
A|-6-3/4---3-3/4-|
E|-4-3/4-0-1-3/4-|

VERSE (Clean)           2x                       Muted Distortion
E|-4-4-4-4-8--8-8-11-11-6-6-6-6-8--8-8-11-11-|--------|
B|-4-4-4-4-9--9-9-------6-6-6-6-9--9-9-------|--------|
G|-5-------10-----------6-------10-----------|--------|
D|-6-------10-----------8-------10-----------|-10-12--|
A|---------8------------8-------8------------|-8--10--|
E|-------------------------------------------|--------|

Bridge - Clean Part -                                Distortion
E|-4-4---------1-1---------6-----------1-----1-|----------------|
B|-4---4---4---1---1---1---6-6---------1-1-----|----------------|
G|-5-----5---5-1-----1---1-6---6---6---1---1---|--------------8-|
D|-6-----------3-----------8-----8---8-3-------|-2-6--------2-8-|
A|-6-----------------------8-------------------|-2-6-repeat-2-6-|
E|-4-----------------------6-------------------|-0-4--------0---|

End Little Riff
E|-8---8---9---9-|
B|---9---9---9---|
G|---------------|
D|---------------|
A|---------------|
E|---------------|





Comments


Popular Ballyhoo tabs & chords
Drag Chords
Farley Chords
The Getaway Chords
The Quest Chords
Alcohol Looks Beautiful Tonight Tabs
Antisocial Tabs
Cheers! Tabs
Diamonds Intro Tabs
Evil Penguin Tabs
I Lately Notice Tabs


Song lyrics



↑ Back to top | Tablatures and chords are parodies/interpretations of the original songs. You may use it for private study, scholarship, research or language learning purposes only
© 2014 AZChords.com Contact us | Privacy policy | DMCA | Add/correct tabs | Request tabs | Top 50 tabs