>
 >
Cheers!

Cheers! Guitar Tabs

Ballyhoo - Cheers! chords, tabs, tablatures, lyrics

Guitar lessons | Add/correct | Request | Top 50 tabs Artists:  A B C D E F G H I J K L M N O P Q R S T U V W X Y Z 0-9

Cheers! Guitar Tabs – Ballyhoo

CD, Sheet music, Poster

Do you like Cheers!? Share with your friends now
Tabs
INTRO (clean, G chord strummed a bunch of times)
E|-3--3-3-3-3--3-3-3-3--3-3-3-3--3-3-3-3-|
B|-3--3-3-3-3--3-3-3-3--3-3-3-3--3-3-3-3-|
G|-0--0-0-0-0--0-0-0-0--0-0-0-0--0-0-0-0-|
D|-0--0-0-0-0--0-0-0-0--0-0-0-0--0-0-0-0-|
A|-2--2-2-2-2--2-2-2-2--2-2-2-2--2-2-2-2-|
E|-3--3-3-3-3--3-3-3-3--3-3-3-3--3-3-3-3-|

CHORUS/INTRO second part (distortion)
E|-3--3-3-3-3--3-3-3-2--2-2-2--2-2-2-2--2-2-2--2-2-2-3--3-3-3--------------|
B|-3--3-3-3-3--3-3-3-3--3-3-3--3-3-3-3--3-3-3--3-3-3-3--3-3-3--------------|
G|-0--0-0-0-0--0-0-0-2--2-2-2--2-2-2-4--4-4-4--4-4-4-5--5-5-5--------------|
D|-0--0-0-0-0--0-0-0-0--0-0-0--0-0-0-4--4-4-4--4-4-4-5--5-5-5--------------|
A|-2--2-2-2-2--2-2-2-----------------2--2-2-2--2-2-2-3--3-3-3-3-2-0-REPEAT-|
E|-3--3-3-3-3--3-3-3---------------------------------3--3-3-3--------------|
*note at the end of each chorus the last two chords are not strummed as shown above*

VERSE (clean, rhythm similar to rest of song and not shown)
E|-3--2--0--0---------|-3--3-3-3-------|
B|-3--3--1--1---------|-3--3-3-3-------|
G|-0--2--2--0---------|-5--5-5-5-------|
D|-0--0--2--2---------|-5--5-5-5-------|
A|-2-----0--3--3-2-0--|-3--3-3-3-3-2-0-|
E|-3------------------|-3--3-3-3-------|
For last part of verse, replace clean C with distorted second part above

INTERLUDE Solo Part (distorted, to a backdrop of the chorus, repeat twice)
Continuously strum through the chord changes, more strums for certain chords than shown 
- listen to the song it's not too difficult
E|----------------------------------------------------------------------|
B|----------------------------------------------------------------------|
G|-12-14-11--12-14-16-14-12-14-12-11-9-7--12-14-12-17-16--17--17-16-14--|
D|--x--x--x---x--x--x--x--x--x--x--x-x-x---x--x--x--x--x---x---x--x--x--|
A|-10-12--9--10-12-14-12-10-12-10--9-7-5--10-12-14-15-14--15--15-14-12--|
E|----------------------------------------------------------------------|

INTERLUDE "Ooh-ooh-ooh" Part (distorted, rhythm not shown but similar to rest of song)
E|-0--0--3--3--|
B|-1--1--3--3--|
G|-2--0--0--2--|
D|-2--2--0--0--|
A|-0--3--2--0--|
E|-------3--2--|

END of song - modify strumming of the last two chords of the chorus, then do a few clean 
strummings of the chorus & end on a G chord

ORDER:  Intro, Chorus, Verse, Chorus, Verse, Chorus, Interlude Solo Part, Interlude 
Ooh-Ooh-Ooh Part, Chorus, Ending Chorus





Comments


Popular Ballyhoo tabs & chords
Diamonds Chords
Farley Chords
Somewhere Tropical Chords
The Getaway Chords
The Quest Chords
Everything Tabs
Freedom Sublime Tribute Tabs
I Lately Notice Tabs
The Friend Zone Tabs
Waiting Tabs


Song lyrics



↑ Back to top | Tablatures and chords are parodies/interpretations of the original songs. You may use it for private study, scholarship, research or language learning purposes only
© 2014 AZChords.com Contact us | Privacy policy | DMCA | Add/correct tabs | Request tabs | Top 50 tabs