>
 >
Cervesa

Cervesa Guitar Tabs

Ballyhoo - Cervesa chords, tabs, tablatures, lyrics

Guitar lessons | Add/correct | Request | Top 50 tabs Artists:  A B C D E F G H I J K L M N O P Q R S T U V W X Y Z 0-9

Cervesa Guitar Tabs – Ballyhoo

CD, Sheet music, Poster

Do you like Cervesa? Share with your friends now
Tabs

Tuning: Standard (eBGDAE)

Intro
e|---------------------------------------------------------------------------|
B|---------------------------------------------------------------------------|
G|---------------------------------------------------------------------------|
D|-----5-5-5-5-5-5-3-2-----------5-5-5-5-5-5-5-3-2---3-2---------------------|
A|--3------------------5-------3-------------------5-----5-------------------|
E|---------------------------------------------------------------------------|

e|---------------------------------------------------------------------------|
B|---------------------------------------------------------------------------|
G|---------------------------------------------------------------------------|
D|-----5-5-5-5-5-5-3-2-----------5-5-5-5-5-5-5-3-2---3-2---------------------|
A|--3------------------5-------3-------------------5-----5-------------------|
E|---------------------------------------------------------------------------|

Verse
(It's about that time again...)
e|--3----3--3--5--5--3--3--5--5--3--3--5--5--3--3--5-5-5-5-------------------|
B|--5----5--5--6--6--5--5--6--6--5--5--6--6--5--5--6-6-6-6-------------------|
G|--5----5--5--7--7--5--5--7--7--5--5--7--7--5--5--7-7-7-7-------------------|
D|--5----5--5--7--7--5--5--7--7--5--5--7--7--5--5--7-7-7-7-------------------|
A|--3----3--3--5--5--3--3--5--5--3--3--5--5--3--3--5-5-5-5-------------------|
E|---------------------------------------------------------------------------|

(And gotta listen to your teacher when...)
e|--3----3--3--5--5--3--3--5--5--3--3--5--5--3----5~-------------------------|
B|--5----5--5--6--6--5--5--6--6--5--5--6--6--5----6~-------------------------|
G|--5----5--5--7--7--5--5--7--7--5--5--7--7--5----7~-------------------------|
D|--5----5--5--7--7--5--5--7--7--5--5--7--7--5----7~-------------------------|
A|--3----3--3--5--5--3--3--5--5--3--3--5--5--3----5~-------------------------|
E|---------------------------------------------------------------------------|

Pre-Chorus
e|---------------------------------------------------------------------------|
B|---------------------------------------------------------------------------|
G|---------------------------------------------------------------------------|
D|--------2-2-2-5-5---------------------------2-2-2-5-5----------------------|
A|--3-3-3-------------------2-2-2-3-3---3-3-3-----------------2-2-2-3-3------|
E|--------------------3-3-3-----------------------------3-3-3----------------|

e|---------------------------------------------------------------------------|
B|---------------------------------------------------------------------------|
G|---------------------------------------------------------------------------|
D|--------------2-2---------------------------2-2-2-5-5----------------------|
A|--0-0-0-3-3-3-------------2-2-2-3-3---3-3-3-----------------2-2-2-3-3------|
E|--------------------1-1-1-----------------------------3-3-3----------------|

Chorus
e|---------------------------------------------------------------------------------|
B|---------------------------------------------------------------------------------|
G|--5-x-x-5-x------------5-x-x-5-x----------------------------------5-x-x-5-x------|
D|--5-x-x-5-x-3-3-3-3----5-x-x-5-x-5-5-5-5----7-x-x-7-x--3-3-3-3----5-x-x-5-x-5~---|
A|--3-x-x-3-x-3-3-3-3----3-x-x-3-x-5-5-5-5----7-x-x-7-x--3-3-3-3----3-x-x-3-x-5~---|
E|------------1-1-1-1--------------3-3-3-3----5-x-x-5-x--1-1-1-1--------------3~---|

Interlude (Same as intro)
e|---------------------------------------------------------------------------|
B|---------------------------------------------------------------------------|
G|---------------------------------------------------------------------------|
D|-----5-5-5-5-5-5-3-2-----------5-5-5-5-5-5-5-3-2---3-2---------------------|
A|--3------------------5-------3-------------------5-----5-------------------|
E|---------------------------------------------------------------------------|

e|---------------------------------------------------------------------------|
B|---------------------------------------------------------------------------|
G|---------------------------------------------------------------------------|
D|-----5-5-5-5-5-5-3-2-----------5-5-5-5-5-5-5-3-2---3-2---------------------|
A|--3------------------5-------3-------------------5-----5-------------------|
E|---------------------------------------------------------------------------|


Verse
(Let's go talk to pretty girls again...)
e|--3----3--3--5--5--3--3--5--5--3--3--5--5--3--3--5-5-5-5-------------------|
B|--5----5--5--6--6--5--5--6--6--5--5--6--6--5--5--6-6-6-6-------------------|
G|--5----5--5--7--7--5--5--7--7--5--5--7--7--5--5--7-7-7-7-------------------|
D|--5----5--5--7--7--5--5--7--7--5--5--7--7--5--5--7-7-7-7-------------------|
A|--3----3--3--5--5--3--3--5--5--3--3--5--5--3--3--5-5-5-5-------------------|
E|---------------------------------------------------------------------------|

(Somebody broke into the weed again...)
e|--3----3--3--5--5--3--3--5--5--3--3--5--5--3----5~-------------------------|
B|--5----5--5--6--6--5--5--6--6--5--5--6--6--5----6~-------------------------|
G|--5----5--5--7--7--5--5--7--7--5--5--7--7--5----7~-------------------------|
D|--5----5--5--7--7--5--5--7--7--5--5--7--7--5----7~-------------------------|
A|--3----3--3--5--5--3--3--5--5--3--3--5--5--3----5~-------------------------|
E|---------------------------------------------------------------------------|

Pre-Chorus
e|---------------------------------------------------------------------------|
B|---------------------------------------------------------------------------|
G|---------------------------------------------------------------------------|
D|--------2-2-2-5-5---------------------------2-2-2-5-5----------------------|
A|--3-3-3-------------------2-2-2-3-3---3-3-3-----------------2-2-2-3-3------|
E|--------------------3-3-3-----------------------------3-3-3----------------|

e|---------------------------------------------------------------------------|
B|---------------------------------------------------------------------------|
G|---------------------------------------------------------------------------|
D|--------------2-2---------------------------2-2-2-5-5----------------------|
A|--0-0-0-3-3-3-------------2-2-2-3-3---3-3-3-----------------2-2-2-3-3------|
E|--------------------1-1-1-----------------------------3-3-3----------------|

Chorus
e|---------------------------------------------------------------------------------------|
B|---------------------------------------------------------------------------------------|
G|--5-x-x-5-x------------5-x-x-5-x----------------------------------5-x-x-5-x------------|
D|--5-x-x-5-x-3-3-3-3----5-x-x-5-x-5-5-5-5----7-x-x-7-x--3-3-3-3----5-x-x-5-x-5-5-5-5-5--|
A|--3-x-x-3-x-3-3-3-3----3-x-x-3-x-5-5-5-5----7-x-x-7-x--3-3-3-3----3-x-x-3-x-5-5-5-5-5--|
E|------------1-1-1-1--------------3-3-3-3----5-x-x-5-x--1-1-1-1--------------3-3-3-3-3--|

Breakdown (Ayyyoo)
e|------------------------------------------------------|
B|------------------------------------------------------|
G|--5-5-5-5-5-5-----------------------------------------|
D|--5-5-5-5-5-5--5-5-5-5-5-5--8-8-8-8-8-8--3-3-3-3-3-3--|
A|--3-3-3-3-3-3--5-5-5-5-5-5--8-8-8-8-8-8--3-3-3-3-3-3--|
E|---------------3-3-3-3-3-3--6-6-6-6-6-6--1-1-1-1-1-1--|

e|------------------------------------------------------|
B|------------------------------------------------------|
G|--5-5-5-5-5-5-----------------------------------------|
D|--5-5-5-5-5-5--5-5-5-5-5-5--8-8-8-8-8-8--3-3-3-3-3-3--|
A|--3-3-3-3-3-3--5-5-5-5-5-5--8-8-8-8-8-8--3-3-3-3-3-3--|
E|---------------3-3-3-3-3-3--6-6-6-6-6-6--1-1-1-1-1-1--|

Pre-Chorus
e|---------------------------------------------------------------------------|
B|---------------------------------------------------------------------------|
G|---------------------------------------------------------------------------|
D|--------2-2-2-5-5---------------------------2-2-2-5-5----------------------|
A|--3-3-3-------------------2-2-2-3-3---3-3-3-----------------2-2-2-3-3------|
E|--------------------3-3-3-----------------------------3-3-3----------------|

e|---------------------------------------------------------------------------|
B|---------------------------------------------------------------------------|
G|---------------------------------------------------------------------------|
D|--------------2-2---------------------------2-2-2-5-5----------------------|
A|--0-0-0-3-3-3-------------2-2-2-3-3---3-3-3-----------------2-2-2-3-3------|
E|--------------------1-1-1-----------------------------3-3-3----------------|

Chorus
e|-----------------------------------------------------------------------------------------|
B|-----------------------------------------------------------------------------------------|
G|--5-x-x-5-x------------5-x-x-5-x----------------------------------5-x-x-5-x----------5~--|
D|--5-x-x-5-x-3-3-3-3----5-x-x-5-x-5-5-5-5----7-x-x-7-x--3-3-3-3----5-x-x-5-x-5-5-5-5--5~--|
A|--3-x-x-3-x-3-3-3-3----3-x-x-3-x-5-5-5-5----7-x-x-7-x--3-3-3-3----3-x-x-3-x-5-5-5-5--3~--|
E|------------1-1-1-1--------------3-3-3-3----5-x-x-5-x--1-1-1-1--------------3-3-3-3------|





Comments


Popular Ballyhoo tabs & chords
Close To Me Chords
Drag Chords
Saw Her Standing Chords
The Quest Chords
Antisocial Tabs
Diamonds Intro Tabs
I Lately Notice Tabs
The Fool Tabs
Close To Me Ukulele
Farley Ukulele


Song lyrics



↑ Back to top | Tablatures and chords are parodies/interpretations of the original songs. You may use it for private study, scholarship, research or language learning purposes only
© 2014 AZChords.com Contact us | Privacy policy | DMCA | Add/correct tabs | Request tabs | Top 50 tabs