» » »

Ballyhoo, Alcohol Looks Beautiful Tonight Tabs (ver.1)

Artists:  A B C D E F G H I J K L M N O P Q R S T U V W X Y Z # 

Alcohol Looks Beautiful Tonight Tabs (ver.1)

Ballyhoo Tabs
Rating:
0/5 (0 votes)
Alcohol Looks Beautiful Tonight lessons Tabs too difficult? Try these video lessons and learn fast
                VERSE
C#                        G#     C#                     F#
We took a weekend off of touring, and so we made our way back home
A#m                        F#           C#                 G#(riff1)
We heard a house party was brewing, its friday so lets get drunk ya
C#                         G#       C#                              F#
We got a call from out boy danny man, he said he had set up shop on down the river shed
A#m                     F#                       C#                 G#
Were so many friends we hadnt seen in years, its friday so lets get hit

PRECHORUS
C#                     F
It was so abrupt how i fell in love
         A#m           C#          B
with the thought of forgetting the day

CHORUS (backround-ooo shoo bop)
           F#                  G#                          C#
Cause its a full moon (whoa oh oh), tell sobriety that shes
      G#               A#m
shes about to meet her doom
      F#                     G#                           C#
Under this full moon(whoa oh oh,)kegs are glissining and I
        G#                   A#m
feer my heart just skipped a beat whoa oh oh
           F#            G#             C#
Cause this alcohol looks beautiful tonight
(verse,p.c., chorus same)

SOLO
e|----------------------------------------------------------------------|
B|----------------------------------------9----------7--7-9-11~~-9-7-\6-|
G|-----6-8-8^-6-6h8~-8-6-5---5h6-8--10/11---11-11p10--------------------|
D|----6-----------------------------------------------------------------|
A|-6-8------------------------------------------------------------------|
E|----------------------------------------------------------------------|

e|-9-8-6-------------------------------------------|
B|------6-------6--/9~-7-6-7~----------------------|
G|--------6-6-8-----------------6-6--8-8/10-8-6-5--|
D|-------------------------------------------------|
A|------------------------------4-4--6-6/8--6-4-3--|
E|-------------------------------------------------|

RIFF1 (transitions)         (jam at end)
e|------------------|----------------------------|
B|------------------|----------------------------|
G|------------------|----------------------------|
D|--------4---------|---------4-----------4------|
A|----3-6-----------|-----3-6---6-3---3-6---6-3--| and so on.
E|--4---------------|---4-----------4------------| end on G#.
            

comments powered by Disqus
↑ Back to top | Ballyhoo Tabs for Alcohol Looks Beautiful Tonight. Lyrics for acoustic guitar and electric guitar. Tablatures and chords are parodies/interpretations of the original songs. You may use it for private study, scholarship, research or language learning purposes only