» » »

Bajaga I Instruktori, Tisina Tabs (ver.1)

Artists:  A B C D E F G H I J K L M N O P Q R S T U V W X Y Z # 

Tisina Tabs (ver.1)

Bajaga I Instruktori Tabs
Rating:
0/5 (0 votes)
Tisina lessons Tabs too difficult? Try these video lessons and learn fast
                Bbm               C#                 G#
Mrak se spustio u kap rano jutro kao slap
G#
ulazi u sobu
Dal' si ikad pitala tamne senke zidova
ujutru gde odu
Oci su ti sklopljene usne su ti umorne
ne ljubi me njima
nisu Cvorci pevali dok je iznad krovova
svirala tisina.
 
Hajde boze budi drug pa okreni jedan krug
u nazad planetu
Noc je kratko trajala a nama je trebala 
najduza na svetu
U mom oku samo kap u mom srcu samo stud
inje i prasina
nisu Cvorci pevali dok je iznad krovova
svirala tisina.
 
Slusaj gore pisti voz njime odlazim u Oz
necu da se vratim 
Sto god tebi napisem pocepam i obrisem
al? ti moras znati :
nisi se probudila zato nisi videla
igrale su sene,
nek te dobri drugovi i kraljevski orlovi
cuvaju od mene.

Solo u pesmu ide otprilike ovako (skido sam napamet, 
posto nemam pesmu pri ruci:)
nije zapisan tajming, pa ga sami odredite

e----------------------------------------------------
B----------------------------------------------------
G-----------------------------10--8------------------
D---6/8--6--8--10--11--8--11---------10--8--6--------
A----------------------------------------------------
E----------------------------------------------------

e----------------------------------------------------
B----------------------------------------------------
G-----------------------------10--8--15--13--15--15--15
D---6/8--6--8--10--11--8--11-------------------------
A----------------------------------------------------
E----------------------------------------------------

e----------------------------------------------------
B----------------------------------------------------
G-----------------------------10--8------------------
D---6/8--6--8--10--11--8--11---------10--8--6--------
A----------------------------------------------------
E----------------------------------------------------

e----------------------------------------------------
B----------------------------------------------------
G---15--13--15--13p12--13p12-------------------------
D----------------------------------------------------
A----------------------------------------------------
E----------------------------------------------------
            

comments powered by Disqus
↑ Back to top | Bajaga I Instruktori Tabs for Tisina. Lyrics for acoustic guitar and electric guitar. Tablatures and chords are parodies/interpretations of the original songs. You may use it for private study, scholarship, research or language learning purposes only