» » »

Tisina Tabs (ver.3)

Artists:  A B C D E F G H I J K L M N O P Q R S T U V W X Y Z # 

Tisina Tabs (ver.3)

Bajaga
Rating:
0/5 (0 votes)

Hard to play? Try these video lessons and learn fast.
                Bajaga
     Tisina



Intro
   Am              C          
e----0---|     e----0---|     e----3---|
B---1-1-1|     B---1-1-1|     B---0-0-0|
G--2---2-|     G--0---0-|     G--0---0-|-2x  
D--------|     D--------|     D--------|  
A-0------|     A-3------|     A--------|
E--------|     E--------|     E-3------|


Am               C                  G    G
Mrak se skupio u kap rano jutro kao slap,ulazi u sobu
Am                C                  G   G
Dal' si ikad pitala tamne senke zidova,ujutro gde odu
Am                   C             G   G
Oci su ti sklopljene usne su ti umorne,ne ljubi me njima
Am                  C              G    G
Nisu cvorci pevali dok je iznad krovova,svirala tisina.

Solo

Hajde boze budi drug pa okreni jedan krug,u nazad planetu
Noc je kratko trajala a nama je trebala,najduza na svetu
U mom oku samo hlad u mom srcu samo stud,inje i prasina
nisu cvorci pevali dok je iznad krovova,svirala tisina.

Solo

U cik zore zvizdi voz njime odlazim u Oz,necu da se vratim
Sto god tebi napisem pocepam i obrisem,al ti moras znati
nisi se probudila zato nisi videla,igrale su sene,
nek te dobri duhovi i kraljevski orlovi,cuvaju u mene.


Hajde boze budi drug pa okreni jedan krug,u nazad planetu
Noc je kratko trajala a nama je trebala,najduza na svetu
U mom oku samo hlad u mom srcu samo stud,inje i prasina
nisu cvorci pevali dok je iznad krovova,svirala tisina.



Solo:
e------------------|                    
B-----------5------|         
G----4-5-4-5-7-4---|  
D-5-7-----------4-7|
A------------------|   
E------------------|         



e-----------------------------|
B-----------5--10-8-10-8-10-10|
G----4-5-4-5-7----------------|
D-5-7-------------------------|
A-----------------------------|
E-----------------------------|



e----------------------------------------|
B-----------5------10-8---8--------------|
G----4-5-4-5-7-4-------7^9-9^7-5-4-------|
D-5-7-----------4-7---------------7-5-5-7|
A----------------------------------------|
E----------------------------------------|
            
Hard to play? Try these video lessons and learn fast. | Correct




comments powered by Disqus
↑ Back to top | Tablatures and chords are parodies/interpretations of the original songs. You may use it for private study, scholarship, research or language learning purposes only