» » »

Bajaga, Tamara Tabs (ver.1)

Artists:  A B C D E F G H I J K L M N O P Q R S T U V W X Y Z # 

Tamara Tabs (ver.1)

Bajaga Tabs
 Rating:
3.7/5 (6 votes)
Tamara lessons Tabs too difficult? Try these video lessons and learn fast
                
Guitar Tabs " Tamara " by Bajaga I Instruktori
Guitar Tabs > B > Bajaga I Instruktori chords & tabs > Tamara Tabs
Please, support Bajaga I Instruktori .
Buy: Bajaga I Instruktori CDs > Bajaga I Instruktori Posters > Bajaga I Instruktori Sheet Music

Guitar Tabs by: Bajaga I Instruktori
Tabs for song: Tamara


Acoustic Solo:
e-----------------------|-----------------------------|
B-----------------------|--8--------------------------|
G---------5/7-5-7b-7/5--|----7b-7/5-7---5-7-----------|
D-----5/7---------------|-------------7-----7---------|
A--3--------------------|-----------------------------|
E-----------------------|-----------------------------|

------8-------|---------------------------------------|
--/10---10/8--|---8-----------------------------------|
--------------|---7b-7-5---5-------5------------------|
--------------|---------7---7-7-----7-6-5-3-----------|
--------------|---------------------------------------|
--------------|---------------------------------------|


Electric Chorus:
----------|
----------|
----------|
----------|
----------|
-5\2/5-3--| repeat


Pre-Chorus Fill:
------8---------------8-10-10b-10/8-10/8-10-8-10b------|
--/10---10/8------/10----------------------------------|
-------------------------------------------------------|
-------------------------------------------------------|
-------------------------------------------------------|
-------------------------------------------------------|

Acoustic Fill (before solo):
------8--------------------|
--/10---10---10-8----------|
------------------9-8-7-5--|
---------------------------|
---------------------------|
---------------------------|


Electric Solo:
--12-15b-15-12-15-12-15b-15-12-15-12-15b-15-12----------------------------------|
-----------------------------------------------15-15b-15\13--13-15-15b-13-15-13-|
--------------------------------------------------------------------------------|
--------------------------------------------------------------------------------|
--------------------------------------------------------------------------------|
--------------------------------------------------------------------------------|

---------------|
-----13-13-12--|
--14-----------|
---------------|
---------------|
---------------|

---------------------------|
---------------------------|
--5-7b-7/5-5-5-------------|
---------------7-5-7-------|
---------------------------|
---------------------------|

Closing Solo:
----------------------------8-8-8-8-8---------10b-8----------------------------------------|
-----------------------8/10-----------10-8-10-------10b-10-8-10-10--10-8-------------------|
------5-7b-5--7b-7/5-7---------------------------------------------------9-8-7-5-----------|
--5-7----------------------------------------------------------------------------7-6-5-3\--|
-------------------------------------------------------------------------------------------|
-------------------------------------------------------------------------------------------|

Lyrics/Chords:

Ispred teatra baljsoj
Am                       F
ja sam te cekao satima
              C      G
tvoj beli hrt berzoj
Am                F
je lajao pred vratima

Na minus dvadeset i sest
Moskva je tonula u san
ja sam se topio k'o sneg
kada ga stavis na dlan F E

Am
G                          Am
cekanje me strasno zamara
G                       Am
Bele noci vetar samara
G             F
a tebe nema

nikad nije bilo tuznije
da smo samo malo juznije
negde dole juzno

A ja sam bio strasno kul
i nisam padao na fore
da li je tako bilo hladno
i mornarima sa Aurore?

Mada si bila lepsa od Neve
i raskosnija od jermitaza
Ne bi te cek'o
ni Zilber Beko
To bi za njega bila blamaza
            
Submit corrections

comments powered by Disqus
↑ Back to top | Bajaga Tabs for Tamara. Lyrics for acoustic guitar and electric guitar. Tablatures and chords are parodies/interpretations of the original songs. You may use it for private study, scholarship, research or language learning purposes only